  0
SECTION
  2
HEADER
  9
$ACADVER
  1
AC1014
  9
$ACADMAINTVER
 70
     9
  9
$DWGCODEPAGE
  3
ASCII
  9
$INSBASE
 10
0.0
 20
0.0
 30
0.0
  9
$EXTMIN
 10
1.000000000000000E+20
 20
1.000000000000000E+20
 30
1.000000000000000E+20
  9
$EXTMAX
 10
-1.000000000000000E+20
 20
-1.000000000000000E+20
 30
-1.000000000000000E+20
  9
$LIMMIN
 10
0.0
 20
0.0
  9
$LIMMAX
 10
12.0
 20
9.0
  9
$ORTHOMODE
 70
     0
  9
$REGENMODE
 70
     1
  9
$FILLMODE
 70
     1
  9
$QTEXTMODE
 70
     0
  9
$MIRRTEXT
 70
     1
  9
$DRAGMODE
 70
     2
  9
$LTSCALE
 40
1.0
  9
$OSMODE
 70
    37
  9
$ATTMODE
 70
     1
  9
$TEXTSIZE
 40
0.2
  9
$TRACEWID
 40
0.05
  9
$TEXTSTYLE
  7
STANDARD
  9
$CLAYER
  8
0
  9
$CELTYPE
  6
BYLAYER
  9
$CECOLOR
 62
   256
  9
$CELTSCALE
 40
1.0
  9
$DELOBJ
 70
     1
  9
$DISPSILH
 70
     0
  9
$DIMSCALE
 40
1.0
  9
$DIMASZ
 40
0.18
  9
$DIMEXO
 40
0.0625
  9
$DIMDLI
 40
0.38
  9
$DIMRND
 40
0.0
  9
$DIMDLE
 40
0.0
  9
$DIMEXE
 40
0.18
  9
$DIMTP
 40
0.0
  9
$DIMTM
 40
0.0
  9
$DIMTXT
 40
0.18
  9
$DIMCEN
 40
0.09
  9
$DIMTSZ
 40
0.0
  9
$DIMTOL
 70
     0
  9
$DIMLIM
 70
     0
  9
$DIMTIH
 70
     1
  9
$DIMTOH
 70
     1
  9
$DIMSE1
 70
     0
  9
$DIMSE2
 70
     0
  9
$DIMTAD
 70
     0
  9
$DIMZIN
 70
     0
  9
$DIMBLK
  1

  9
$DIMASO
 70
     1
  9
$DIMSHO
 70
     1
  9
$DIMPOST
  1

  9
$DIMAPOST
  1

  9
$DIMALT
 70
     0
  9
$DIMALTD
 70
     2
  9
$DIMALTF
 40
25.4
  9
$DIMLFAC
 40
1.0
  9
$DIMTOFL
 70
     0
  9
$DIMTVP
 40
0.0
  9
$DIMTIX
 70
     0
  9
$DIMSOXD
 70
     0
  9
$DIMSAH
 70
     0
  9
$DIMBLK1
  1

  9
$DIMBLK2
  1

  9
$DIMSTYLE
  2
STANDARD
  9
$DIMCLRD
 70
     0
  9
$DIMCLRE
 70
     0
  9
$DIMCLRT
 70
     0
  9
$DIMTFAC
 40
1.0
  9
$DIMGAP
 40
0.09
  9
$DIMJUST
 70
     0
  9
$DIMSD1
 70
     0
  9
$DIMSD2
 70
     0
  9
$DIMTOLJ
 70
     1
  9
$DIMTZIN
 70
     0
  9
$DIMALTZ
 70
     0
  9
$DIMALTTZ
 70
     0
  9
$DIMFIT
 70
     3
  9
$DIMUPT
 70
     0
  9
$DIMUNIT
 70
     2
  9
$DIMDEC
 70
     4
  9
$DIMTDEC
 70
     4
  9
$DIMALTU
 70
     2
  9
$DIMALTTD
 70
     2
  9
$DIMTXSTY
  7
STANDARD
  9
$DIMAUNIT
 70
     0
  9
$LUNITS
 70
     2
  9
$LUPREC
 70
     4
  9
$SKETCHINC
 40
0.1
  9
$FILLETRAD
 40
0.5
  9
$AUNITS
 70
     0
  9
$AUPREC
 70
     0
  9
$MENU
  1
.
  9
$ELEVATION
 40
0.0
  9
$PELEVATION
 40
0.0
  9
$THICKNESS
 40
0.0
  9
$LIMCHECK
 70
     0
  9
$CHAMFERA
 40
0.5
  9
$CHAMFERB
 40
0.5
  9
$CHAMFERC
 40
1.0
  9
$CHAMFERD
 40
0.0
  9
$SKPOLY
 70
     0
  9
$TDCREATE
 40
2455807.685034722
  9
$TDUPDATE
 40
2455814.49281206
  9
$TDINDWG
 40
0.0000000116
  9
$TDUSRTIMER
 40
0.0000000116
  9
$USRTIMER
 70
     1
  9
$ANGBASE
 50
0.0
  9
$ANGDIR
 70
     0
  9
$PDMODE
 70
     0
  9
$PDSIZE
 40
0.0
  9
$PLINEWID
 40
0.0
  9
$COORDS
 70
     1
  9
$SPLFRAME
 70
     0
  9
$SPLINETYPE
 70
     6
  9
$SPLINESEGS
 70
     8
  9
$ATTDIA
 70
     0
  9
$ATTREQ
 70
     1
  9
$HANDLING
 70
     1
  9
$HANDSEED
  5
295
  9
$SURFTAB1
 70
     6
  9
$SURFTAB2
 70
     6
  9
$SURFTYPE
 70
     6
  9
$SURFU
 70
     6
  9
$SURFV
 70
     6
  9
$UCSNAME
  2

  9
$UCSORG
 10
0.0
 20
0.0
 30
0.0
  9
$UCSXDIR
 10
1.0
 20
0.0
 30
0.0
  9
$UCSYDIR
 10
0.0
 20
1.0
 30
0.0
  9
$PUCSNAME
  2

  9
$PUCSORG
 10
0.0
 20
0.0
 30
0.0
  9
$PUCSXDIR
 10
1.0
 20
0.0
 30
0.0
  9
$PUCSYDIR
 10
0.0
 20
1.0
 30
0.0
  9
$USERI1
 70
     0
  9
$USERI2
 70
     0
  9
$USERI3
 70
     0
  9
$USERI4
 70
     0
  9
$USERI5
 70
     0
  9
$USERR1
 40
0.0
  9
$USERR2
 40
0.0
  9
$USERR3
 40
0.0
  9
$USERR4
 40
0.0
  9
$USERR5
 40
0.0
  9
$WORLDVIEW
 70
     1
  9
$SHADEDGE
 70
     3
  9
$SHADEDIF
 70
    70
  9
$TILEMODE
 70
     1
  9
$MAXACTVP
 70
    64
  9
$PINSBASE
 10
0.0
 20
0.0
 30
0.0
  9
$PLIMCHECK
 70
     0
  9
$PEXTMIN
 10
1.000000000000000E+20
 20
1.000000000000000E+20
 30
1.000000000000000E+20
  9
$PEXTMAX
 10
-1.000000000000000E+20
 20
-1.000000000000000E+20
 30
-1.000000000000000E+20
  9
$PLIMMIN
 10
0.0
 20
0.0
  9
$PLIMMAX
 10
12.0
 20
9.0
  9
$UNITMODE
 70
     0
  9
$VISRETAIN
 70
     1
  9
$PLINEGEN
 70
     0
  9
$PSLTSCALE
 70
     1
  9
$TREEDEPTH
 70
  3020
  9
$PICKSTYLE
 70
     1
  9
$CMLSTYLE
  2
STANDARD
  9
$CMLJUST
 70
     0
  9
$CMLSCALE
 40
1.0
  9
$PROXYGRAPHICS
 70
     1
  9
$MEASUREMENT
 70
     0
  0
ENDSEC
  0
SECTION
  2
CLASSES
  0
CLASS
  1
ACDBDICTIONARYWDFLT
  2
AcDbDictionaryWithDefault
  3
ObjectDBX Classes
 90
        0
280
     0
281
     0
  0
CLASS
  1
VISUALSTYLE
  2
AcDbVisualStyle
  3
ObjectDBX Classes
 90
     4095
280
     0
281
     0
  0
CLASS
  1
SCALE
  2
AcDbScale
  3
ObjectDBX Classes
 90
     1153
280
     0
281
     0
  0
CLASS
  1
MATERIAL
  2
AcDbMaterial
  3
ObjectDBX Classes
 90
     1153
280
     0
281
     0
  0
CLASS
  1
DICTIONARYVAR
  2
AcDbDictionaryVar
  3
ObjectDBX Classes
 90
        0
280
     0
281
     0
  0
CLASS
  1
XRECORD
  2
AcDbXrecord
  3
AutoCAD 2000
 90
        0
280
     0
281
     0
  0
CLASS
  1
LWPOLYLINE
  2
AcDbPolyline
  3
AutoCAD 2000
 90
        0
280
     0
281
     1
  0
CLASS
  1
HATCH
  2
AcDbHatch
  3
AutoCAD 2000
 90
        0
280
     0
281
     1
  0
CLASS
  1
ACDBPLACEHOLDER
  2
AcDbPlaceHolder
  3
ObjectDBX Classes
 90
        0
280
     0
281
     0
  0
CLASS
  1
LAYOUT
  2
AcDbLayout
  3
ObjectDBX Classes
 90
        0
280
     0
281
     0
  0
ENDSEC
  0
SECTION
  2
TABLES
  0
TABLE
  2
VPORT
  5
8
330
0
100
AcDbSymbolTable
 70
     1
  0
VPORT
  5
29
330
8
100
AcDbSymbolTableRecord
100
AcDbViewportTableRecord
  2
*ACTIVE
 70
     0
 10
0.0
 20
0.0
 11
1.0
 21
1.0
 12
0.0
 22
0.0
 13
0.0
 23
0.0
 14
0.5
 24
0.5
 15
0.5
 25
0.5
 16
0.0
 26
0.0
 36
1.0
 17
4.000002637779517
 27
4.000002637779517
 37
0.0
 40
8.000005275559035
 41
1.0
 42
50.0
 43
0.0
 44
0.0
 50
0.0
 51
0.0
 71
     0
 72
   100
 73
     1
 74
     3
 75
     0
 76
     0
 77
     0
 78
     0
  0
ENDTAB
  0
TABLE
  2
LTYPE
  5
5
330
0
100
AcDbSymbolTable
 70
     2
  0
LTYPE
  5
14
330
5
100
AcDbSymbolTableRecord
100
AcDbLinetypeTableRecord
  2
BYBLOCK
 70
     0
  3

 72
    65
 73
     0
 40
0.0
  0
LTYPE
  5
15
330
5
100
AcDbSymbolTableRecord
100
AcDbLinetypeTableRecord
  2
BYLAYER
 70
     0
  3

 72
    65
 73
     0
 40
0.0
  0
LTYPE
  5
16
330
5
100
AcDbSymbolTableRecord
100
AcDbLinetypeTableRecord
  2
CONTINUOUS
 70
     0
  3
Solid line
 72
    65
 73
     0
 40
0.0
  0
LTYPE
  5
99
330
5
100
AcDbSymbolTableRecord
100
AcDbLinetypeTableRecord
  2
AI-LINETYPE-1
 70
     0
  3
Adobe Illustrator Linetype No. 1
 72
    65
 73
     6
 40
0.0554167049990443
 49
0.0092361174998407
 74
     0
 49
-0.0092361174998407
 74
     0
 49
0.0092361174998407
 74
     0
 49
-0.0092361174998407
 74
     0
 49
0.0092361174998407
 74
     0
 49
-0.0092361174998407
 74
     0
  0
ENDTAB
  0
TABLE
  2
LAYER
  5
2
330
0
100
AcDbSymbolTable
 70
     2
  0
LAYER
  5
10
330
2
100
AcDbSymbolTableRecord
100
AcDbLayerTableRecord
  2
0
 70
     0
 62
     7
  6
CONTINUOUS
  0
LAYER
  5
3B
330
2
100
AcDbSymbolTableRecord
100
AcDbLayerTableRecord
  2
LAYER_2
 70
     0
 62
     7
  6
CONTINUOUS
  0
ENDTAB
  0
TABLE
  2
STYLE
  5
3
330
0
100
AcDbSymbolTable
 70
     1
  0
STYLE
  5
11
330
3
100
AcDbSymbolTableRecord
100
AcDbTextStyleTableRecord
  2
STANDARD
 70
     0
 40
0.0
 41
1.0
 50
0.0
 71
     0
 42
0.2
  3
txt
  4

  0
ENDTAB
  0
TABLE
  2
VIEW
  5
6
330
0
100
AcDbSymbolTable
 70
     0
  0
ENDTAB
  0
TABLE
  2
UCS
  5
7
330
0
100
AcDbSymbolTable
 70
     0
  0
ENDTAB
  0
TABLE
  2
APPID
  5
9
330
0
100
AcDbSymbolTable
 70
     1
  0
APPID
  5
12
330
9
100
AcDbSymbolTableRecord
100
AcDbRegAppTableRecord
  2
ACAD
 70
     0
  0
ENDTAB
  0
TABLE
  2
DIMSTYLE
  5
A
330
0
100
AcDbSymbolTable
 70
     1
  0
DIMSTYLE
105
27
330
A
100
AcDbSymbolTableRecord
100
AcDbDimStyleTableRecord
  2
STANDARD
 70
     0
  3

  4

  5

  6

  7

 40
1.0
 41
0.18
 42
0.0625
 43
0.38
 44
0.18
 45
0.0
 46
0.0
 47
0.0
 48
0.0
140
0.18
141
0.09
142
0.0
143
25.4
144
1.0
145
0.0
146
1.0
147
0.09
 71
     0
 72
     0
 73
     1
 74
     1
 75
     0
 76
     0
 77
     0
 78
     0
170
     0
171
     2
172
     0
173
     0
174
     0
175
     0
176
     0
177
     0
178
     0
270
     2
271
     4
272
     4
273
     2
274
     2
340
11
275
     0
280
     0
281
     0
282
     0
283
     1
284
     0
285
     0
286
     0
287
     3
288
     0
  0
ENDTAB
  0
TABLE
  2
BLOCK_RECORD
  5
1
330
0
100
AcDbSymbolTable
 70
    40
  0
BLOCK_RECORD
  5
1F
330
1
100
AcDbSymbolTableRecord
100
AcDbBlockTableRecord
  2
*MODEL_SPACE
  0
BLOCK_RECORD
  5
1B
330
1
100
AcDbSymbolTableRecord
100
AcDbBlockTableRecord
  2
*PAPER_SPACE
  0
BLOCK_RECORD
  5
43
330
1
100
AcDbSymbolTableRecord
100
AcDbBlockTableRecord
  2
BLOCK_2
  0
BLOCK_RECORD
  5
47
330
1
100
AcDbSymbolTableRecord
100
AcDbBlockTableRecord
  2
BLOCK_3
  0
BLOCK_RECORD
  5
4B
330
1
100
AcDbSymbolTableRecord
100
AcDbBlockTableRecord
  2
BLOCK_4
  0
BLOCK_RECORD
  5
53
330
1
100
AcDbSymbolTableRecord
100
AcDbBlockTableRecord
  2
BLOCK_5
  0
BLOCK_RECORD
  5
69
330
1
100
AcDbSymbolTableRecord
100
AcDbBlockTableRecord
  2
BLOCK_6
  0
BLOCK_RECORD
  5
A2
330
1
100
AcDbSymbolTableRecord
100
AcDbBlockTableRecord
  2
BLOCK_7
  0
BLOCK_RECORD
  5
AA
330
1
100
AcDbSymbolTableRecord
100
AcDbBlockTableRecord
  2
BLOCK_8
  0
BLOCK_RECORD
  5
B3
330
1
100
AcDbSymbolTableRecord
100
AcDbBlockTableRecord
  2
BLOCK_9
  0
BLOCK_RECORD
  5
C1
330
1
100
AcDbSymbolTableRecord
100
AcDbBlockTableRecord
  2
BLOCK_10
  0
BLOCK_RECORD
  5
FB
330
1
100
AcDbSymbolTableRecord
100
AcDbBlockTableRecord
  2
BLOCK_11
  0
BLOCK_RECORD
  5
117
330
1
100
AcDbSymbolTableRecord
100
AcDbBlockTableRecord
  2
BLOCK_12
  0
BLOCK_RECORD
  5
12B
330
1
100
AcDbSymbolTableRecord
100
AcDbBlockTableRecord
  2
BLOCK_13
  0
BLOCK_RECORD
  5
133
330
1
100
AcDbSymbolTableRecord
100
AcDbBlockTableRecord
  2
BLOCK_14
  0
BLOCK_RECORD
  5
13C
330
1
100
AcDbSymbolTableRecord
100
AcDbBlockTableRecord
  2
BLOCK_15
  0
BLOCK_RECORD
  5
146
330
1
100
AcDbSymbolTableRecord
100
AcDbBlockTableRecord
  2
BLOCK_16
  0
BLOCK_RECORD
  5
150
330
1
100
AcDbSymbolTableRecord
100
AcDbBlockTableRecord
  2
BLOCK_17
  0
BLOCK_RECORD
  5
15A
330
1
100
AcDbSymbolTableRecord
100
AcDbBlockTableRecord
  2
BLOCK_18
  0
BLOCK_RECORD
  5
164
330
1
100
AcDbSymbolTableRecord
100
AcDbBlockTableRecord
  2
BLOCK_19
  0
BLOCK_RECORD
  5
16E
330
1
100
AcDbSymbolTableRecord
100
AcDbBlockTableRecord
  2
BLOCK_20
  0
BLOCK_RECORD
  5
178
330
1
100
AcDbSymbolTableRecord
100
AcDbBlockTableRecord
  2
BLOCK_21
  0
BLOCK_RECORD
  5
182
330
1
100
AcDbSymbolTableRecord
100
AcDbBlockTableRecord
  2
BLOCK_22
  0
BLOCK_RECORD
  5
18C
330
1
100
AcDbSymbolTableRecord
100
AcDbBlockTableRecord
  2
BLOCK_23
  0
BLOCK_RECORD
  5
196
330
1
100
AcDbSymbolTableRecord
100
AcDbBlockTableRecord
  2
BLOCK_24
  0
BLOCK_RECORD
  5
1A0
330
1
100
AcDbSymbolTableRecord
100
AcDbBlockTableRecord
  2
BLOCK_25
  0
BLOCK_RECORD
  5
1AA
330
1
100
AcDbSymbolTableRecord
100
AcDbBlockTableRecord
  2
BLOCK_26
  0
BLOCK_RECORD
  5
1B4
330
1
100
AcDbSymbolTableRecord
100
AcDbBlockTableRecord
  2
BLOCK_27
  0
BLOCK_RECORD
  5
1BE
330
1
100
AcDbSymbolTableRecord
100
AcDbBlockTableRecord
  2
BLOCK_28
  0
BLOCK_RECORD
  5
1C8
330
1
100
AcDbSymbolTableRecord
100
AcDbBlockTableRecord
  2
BLOCK_29
  0
BLOCK_RECORD
  5
1D2
330
1
100
AcDbSymbolTableRecord
100
AcDbBlockTableRecord
  2
BLOCK_30
  0
BLOCK_RECORD
  5
1DC
330
1
100
AcDbSymbolTableRecord
100
AcDbBlockTableRecord
  2
BLOCK_31
  0
BLOCK_RECORD
  5
1E6
330
1
100
AcDbSymbolTableRecord
100
AcDbBlockTableRecord
  2
BLOCK_32
  0
BLOCK_RECORD
  5
1F0
330
1
100
AcDbSymbolTableRecord
100
AcDbBlockTableRecord
  2
BLOCK_33
  0
BLOCK_RECORD
  5
1FA
330
1
100
AcDbSymbolTableRecord
100
AcDbBlockTableRecord
  2
BLOCK_34
  0
BLOCK_RECORD
  5
204
330
1
100
AcDbSymbolTableRecord
100
AcDbBlockTableRecord
  2
BLOCK_35
  0
BLOCK_RECORD
  5
20E
330
1
100
AcDbSymbolTableRecord
100
AcDbBlockTableRecord
  2
BLOCK_36
  0
BLOCK_RECORD
  5
218
330
1
100
AcDbSymbolTableRecord
100
AcDbBlockTableRecord
  2
BLOCK_37
  0
BLOCK_RECORD
  5
222
330
1
100
AcDbSymbolTableRecord
100
AcDbBlockTableRecord
  2
BLOCK_38
  0
BLOCK_RECORD
  5
22C
330
1
100
AcDbSymbolTableRecord
100
AcDbBlockTableRecord
  2
BLOCK_39
  0
BLOCK_RECORD
  5
236
330
1
100
AcDbSymbolTableRecord
100
AcDbBlockTableRecord
  2
BLOCK_40
  0
ENDTAB
  0
ENDSEC
  0
SECTION
  2
BLOCKS
  0
BLOCK
  5
20
330
1F
100
AcDbEntity
  8
0
100
AcDbBlockBegin
  2
*MODEL_SPACE
 70
     0
 10
0.0
 20
0.0
 30
0.0
  3
*MODEL_SPACE
  1

  0
ENDBLK
  5
21
330
1F
100
AcDbEntity
  8
0
100
AcDbBlockEnd
  0
BLOCK
  5
1C
330
1B
100
AcDbEntity
 67
     1
  8
0
100
AcDbBlockBegin
  2
*PAPER_SPACE
 70
     0
 10
0.0
 20
0.0
 30
0.0
  3
*PAPER_SPACE
  1

  0
ENDBLK
  5
1D
330
1B
100
AcDbEntity
 67
     1
  8
0
100
AcDbBlockEnd
  0
BLOCK
  5
45
330
43
100
AcDbEntity
  8
0
100
AcDbBlockBegin
  2
BLOCK_2
 70
     0
 10
0.0
 20
0.0
 30
0.0
  3
BLOCK_2
  1

  0
INSERT
  5
48
330
43
100
AcDbEntity
  8
LAYER_2
100
AcDbBlockReference
  2
BLOCK_3
 10
0.0
 20
0.0
 30
0.0
  0
SPLINE
  5
86
330
43
100
AcDbEntity
  8
LAYER_2
100
AcDbSpline
210
0.0
220
0.0
230
1.0
 70
    11
 71
     3
 72
    47
 73
    43
 74
     0
 42
0.0000000001
 43
0.0000000001
 40
0.0
 40
0.0
 40
0.0
 40
0.0
 40
1.0
 40
1.0
 40
1.0
 40
2.0
 40
2.0
 40
2.0
 40
3.0
 40
3.0
 40
3.0
 40
4.0
 40
4.0
 40
4.0
 40
5.0
 40
5.0
 40
5.0
 40
6.0
 40
6.0
 40
6.0
 40
7.0
 40
7.0
 40
7.0
 40
8.0
 40
8.0
 40
8.0
 40
9.0
 40
9.0
 40
9.0
 40
10.0
 40
10.0
 40
10.0
 40
11.0
 40
11.0
 40
11.0
 40
12.0
 40
12.0
 40
12.0
 40
13.0
 40
13.0
 40
13.0
 40
14.0
 40
14.0
 40
14.0
 40
14.0
 10
2.237889388090113
 20
7.129751880494713
 30
0.0
 10
2.237889388090113
 20
7.129751880494713
 30
0.0
 10
2.23367117784316
 20
7.129751880494713
 30
0.0
 10
2.23367117784316
 20
7.129751880494713
 30
0.0
 10
2.23367117784316
 20
7.129751880494713
 30
0.0
 10
2.23367117784316
 20
7.161056154610365
 30
0.0
 10
2.23367117784316
 20
7.161056154610365
 30
0.0
 10
2.23367117784316
 20
7.161056154610365
 30
0.0
 10
2.248143301101999
 20
7.161056154610365
 30
0.0
 10
2.248143301101999
 20
7.161056154610365
 30
0.0
 10
2.253283820984942
 20
7.161056154610365
 30
0.0
 10
2.258410777490885
 20
7.159265788846385
 30
0.0
 10
2.258410777490885
 20
7.152633297493458
 30
0.0
 10
2.258410777490885
 20
7.14800818593651
 30
0.0
 10
2.256064313269911
 20
7.146312763811529
 30
0.0
 10
2.254070496850933
 20
7.145132750012542
 30
0.0
 10
2.255860862614913
 20
7.14440032765455
 30
0.0
 10
2.257637665001894
 20
7.143613651788558
 30
0.0
 10
2.257813988902892
 20
7.139246244394608
 30
0.0
 10
2.257813988902892
 20
7.139246244394608
 30
0.0
 10
2.258085256442889
 20
7.13357675280867
 30
0.0
 10
2.258085256442889
 20
7.13357675280867
 30
0.0
 10
2.258125946573888
 20
7.13184064055269
 30
0.0
 10
2.258329397228886
 20
7.131189598456697
 30
0.0
 10
2.259631481420871
 20
7.130443612721705
 30
0.0
 10
2.259631481420871
 20
7.130443612721705
 30
0.0
 10
2.259631481420871
 20
7.129751880494713
 30
0.0
 10
2.259631481420871
 20
7.129751880494713
 30
0.0
 10
2.259631481420871
 20
7.129751880494713
 30
0.0
 10
2.254463834783929
 20
7.129751880494713
 30
0.0
 10
2.254463834783929
 20
7.129751880494713
 30
0.0
 10
2.253853482818936
 20
7.131664316651691
 30
0.0
 10
2.253717849048937
 20
7.136425061978639
 30
0.0
 10
2.253717849048937
 20
7.137591512400626
 30
0.0
 10
2.253717849048937
 20
7.140168554030597
 30
0.0
 10
2.253202440722943
 20
7.143179623724563
 30
0.0
 10
2.248143301101999
 20
7.143179623724563
 30
0.0
 10
2.248143301101999
 20
7.143179623724563
 30
0.0
 10
2.237889388090113
 20
7.143179623724563
 30
0.0
 10
2.237889388090113
 20
7.143179623724563
 30
0.0
 10
2.237889388090113
 20
7.143179623724563
 30
0.0
 10
2.237889388090113
 20
7.129751880494713
 30
0.0
 10
2.237889388090113
 20
7.129751880494713
 30
0.0
  0
SPLINE
  5
87
330
43
100
AcDbEntity
  8
LAYER_2
100
AcDbSpline
210
0.0
220
0.0
230
1.0
 70
    11
 71
     3
 72
    20
 73
    16
 74
     0
 42
0.0000000001
 43
0.0000000001
 40
0.0
 40
0.0
 40
0.0
 40
0.0
 40
1.0
 40
1.0
 40
1.0
 40
2.0
 40
2.0
 40
2.0
 40
3.0
 40
3.0
 40
3.0
 40
4.0
 40
4.0
 40
4.0
 40
5.0
 40
5.0
 40
5.0
 40
5.0
 10
2.237889388090113
 20
7.146787482006523
 30
0.0
 10
2.237889388090113
 20
7.146787482006523
 30
0.0
 10
2.247695709661004
 20
7.146787482006523
 30
0.0
 10
2.247695709661004
 20
7.146787482006523
 30
0.0
 10
2.25080172299397
 20
7.146787482006523
 30
0.0
 10
2.254070496850933
 20
7.147574157872515
 30
0.0
 10
2.254070496850933
 20
7.152199269429463
 30
0.0
 10
2.254070496850933
 20
7.15704139501841
 30
0.0
 10
2.250544018830972
 20
7.157434732951405
 30
0.0
 10
2.248428132018996
 20
7.157434732951405
 30
0.0
 10
2.248428132018996
 20
7.157434732951405
 30
0.0
 10
2.237889388090113
 20
7.157434732951405
 30
0.0
 10
2.237889388090113
 20
7.157434732951405
 30
0.0
 10
2.237889388090113
 20
7.157434732951405
 30
0.0
 10
2.237889388090113
 20
7.146787482006523
 30
0.0
 10
2.237889388090113
 20
7.146787482006523
 30
0.0
  0
HATCH
  5
88
330
43
100
AcDbEntity
  8
LAYER_2
 62
    18
100
AcDbHatch
 10
0.0
 20
0.0
 30
0.0
210
0.0
220
0.0
230
1.0
  2
SOLID
 70
     1
 71
     0
 91
        2
 92
        1
 93
        1
 72
     4
 94
        3
 73
     0
 74
     1
 95
       47
 96
       43
 40
0.0
 40
0.0
 40
0.0
 40
0.0
 40
1.0
 40
1.0
 40
1.0
 40
2.0
 40
2.0
 40
2.0
 40
3.0
 40
3.0
 40
3.0
 40
4.0
 40
4.0
 40
4.0
 40
5.0
 40
5.0
 40
5.0
 40
6.0
 40
6.0
 40
6.0
 40
7.0
 40
7.0
 40
7.0
 40
8.0
 40
8.0
 40
8.0
 40
9.0
 40
9.0
 40
9.0
 40
10.0
 40
10.0
 40
10.0
 40
11.0
 40
11.0
 40
11.0
 40
12.0
 40
12.0
 40
12.0
 40
13.0
 40
13.0
 40
13.0
 40
14.0
 40
14.0
 40
14.0
 40
14.0
 10
2.237889388090113
 20
7.129751880494713
 10
2.237889388090113
 20
7.129751880494713
 10
2.23367117784316
 20
7.129751880494713
 10
2.23367117784316
 20
7.129751880494713
 10
2.23367117784316
 20
7.129751880494713
 10
2.23367117784316
 20
7.161056154610365
 10
2.23367117784316
 20
7.161056154610365
 10
2.23367117784316
 20
7.161056154610365
 10
2.248143301101999
 20
7.161056154610365
 10
2.248143301101999
 20
7.161056154610365
 10
2.253283820984942
 20
7.161056154610365
 10
2.258410777490885
 20
7.159265788846385
 10
2.258410777490885
 20
7.152633297493458
 10
2.258410777490885
 20
7.14800818593651
 10
2.256064313269911
 20
7.146312763811529
 10
2.254070496850933
 20
7.145132750012542
 10
2.255860862614913
 20
7.14440032765455
 10
2.257637665001894
 20
7.143613651788558
 10
2.257813988902892
 20
7.139246244394608
 10
2.257813988902892
 20
7.139246244394608
 10
2.258085256442889
 20
7.13357675280867
 10
2.258085256442889
 20
7.13357675280867
 10
2.258125946573888
 20
7.13184064055269
 10
2.258329397228886
 20
7.131189598456697
 10
2.259631481420871
 20
7.130443612721705
 10
2.259631481420871
 20
7.130443612721705
 10
2.259631481420871
 20
7.129751880494713
 10
2.259631481420871
 20
7.129751880494713
 10
2.259631481420871
 20
7.129751880494713
 10
2.254463834783929
 20
7.129751880494713
 10
2.254463834783929
 20
7.129751880494713
 10
2.253853482818936
 20
7.131664316651691
 10
2.253717849048937
 20
7.136425061978639
 10
2.253717849048937
 20
7.137591512400626
 10
2.253717849048937
 20
7.140168554030597
 10
2.253202440722943
 20
7.143179623724563
 10
2.248143301101999
 20
7.143179623724563
 10
2.248143301101999
 20
7.143179623724563
 10
2.237889388090113
 20
7.143179623724563
 10
2.237889388090113
 20
7.143179623724563
 10
2.237889388090113
 20
7.143179623724563
 10
2.237889388090113
 20
7.129751880494713
 10
2.237889388090113
 20
7.129751880494713
 97
        0
 92
        1
 93
        1
 72
     4
 94
        3
 73
     0
 74
     1
 95
       20
 96
       16
 40
0.0
 40
0.0
 40
0.0
 40
0.0
 40
1.0
 40
1.0
 40
1.0
 40
2.0
 40
2.0
 40
2.0
 40
3.0
 40
3.0
 40
3.0
 40
4.0
 40
4.0
 40
4.0
 40
5.0
 40
5.0
 40
5.0
 40
5.0
 10
2.237889388090113
 20
7.146787482006523
 10
2.237889388090113
 20
7.146787482006523
 10
2.247695709661004
 20
7.146787482006523
 10
2.247695709661004
 20
7.146787482006523
 10
2.25080172299397
 20
7.146787482006523
 10
2.254070496850933
 20
7.147574157872515
 10
2.254070496850933
 20
7.152199269429463
 10
2.254070496850933
 20
7.15704139501841
 10
2.250544018830972
 20
7.157434732951405
 10
2.248428132018996
 20
7.157434732951405
 10
2.248428132018996
 20
7.157434732951405
 10
2.237889388090113
 20
7.157434732951405
 10
2.237889388090113
 20
7.157434732951405
 10
2.237889388090113
 20
7.157434732951405
 10
2.237889388090113
 20
7.146787482006523
 10
2.237889388090113
 20
7.146787482006523
 97
        0
 75
     2
 76
     1
 98
        0
  0
SPLINE
  5
89
330
43
100
AcDbEntity
  8
LAYER_2
 62
    18
100
AcDbSpline
210
0.0
220
0.0
230
1.0
 70
    11
 71
     3
 72
    17
 73
    13
 74
     0
 42
0.0000000001
 43
0.0000000001
 40
0.0
 40
0.0
 40
0.0
 40
0.0
 40
1.0
 40
1.0
 40
1.0
 40
2.0
 40
2.0
 40
2.0
 40
3.0
 40
3.0
 40
3.0
 40
4.0
 40
4.0
 40
4.0
 40
4.0
 10
2.271065408231745
 20
7.146095749779531
 30
0.0
 10
2.271065408231745
 20
7.132016964453688
 30
0.0
 10
2.259631481420871
 20
7.120596601019814
 30
0.0
 10
2.245566259472028
 20
7.120596601019814
 30
0.0
 10
2.231487474146185
 20
7.120596601019814
 30
0.0
 10
2.220067110712312
 20
7.132016964453688
 30
0.0
 10
2.220067110712312
 20
7.146095749779531
 30
0.0
 10
2.220067110712312
 20
7.160174535105375
 30
0.0
 10
2.231487474146185
 20
7.171594898539247
 30
0.0
 10
2.245566259472028
 20
7.171594898539247
 30
0.0
 10
2.259631481420871
 20
7.171594898539247
 30
0.0
 10
2.271065408231745
 20
7.160174535105375
 30
0.0
 10
2.271065408231745
 20
7.146095749779531
 30
0.0
  0
ENDBLK
  5
46
330
43
100
AcDbEntity
  8
0
100
AcDbBlockEnd
  0
BLOCK
  5
49
330
47
100
AcDbEntity
  8
0
100
AcDbBlockBegin
  2
BLOCK_3
 70
     0
 10
0.0
 20
0.0
 30
0.0
  3
BLOCK_3
  1

  0
INSERT
  5
4C
330
47
100
AcDbEntity
  8
LAYER_2
100
AcDbBlockReference
  2
BLOCK_4
 10
0.0
 20
0.0
 30
0.0
  0
INSERT
  5
54
330
47
100
AcDbEntity
  8
LAYER_2
100
AcDbBlockReference
  2
BLOCK_5
 10
0.0
 20
0.0
 30
0.0
  0
INSERT
  5
6A
330
47
100
AcDbEntity
  8
LAYER_2
100
AcDbBlockReference
  2
BLOCK_6
 10
0.0
 20
0.0
 30
0.0
  0
ENDBLK
  5
4A
330
47
100
AcDbEntity
  8
0
100
AcDbBlockEnd
  0
BLOCK
  5
4D
330
4B
100
AcDbEntity
  8
0
100
AcDbBlockBegin
  2
BLOCK_4
 70
     0
 10
0.0
 20
0.0
 30
0.0
  3
BLOCK_4
  1

  0
SPLINE
  5
4F
330
4B
100
AcDbEntity
  8
LAYER_2
100
AcDbSpline
210
0.0
220
0.0
230
1.0
 70
    11
 71
     3
 72
    17
 73
    13
 74
     0
 42
0.0000000001
 43
0.0000000001
 40
0.0
 40
0.0
 40
0.0
 40
0.0
 40
1.0
 40
1.0
 40
1.0
 40
2.0
 40
2.0
 40
2.0
 40
3.0
 40
3.0
 40
3.0
 40
4.0
 40
4.0
 40
4.0
 40
4.0
 10
0.4318579236751975
 20
7.185904261274088
 30
0.0
 10
0.316080937604485
 20
6.998770348807169
 30
0.0
 10
0.2127958217506336
 20
6.762537011600797
 30
0.0
 10
0.4506432008199886
 20
6.7891890474055
 30
0.0
 10
0.7065569980531426
 20
6.817834899629181
 30
0.0
 10
1.114475561323606
 20
7.429692399469378
 30
0.0
 10
1.114475561323606
 20
7.429692399469378
 30
0.0
 10
0.9777838479191264
 20
7.06254534746046
 30
0.0
 10
0.4575333963359119
 20
6.45557066334021
 30
0.0
 10
0.2553170086451607
 20
6.604116768242558
 30
0.0
 10
0.0531277477084092
 20
6.752757816783905
 30
0.0
 10
0.4318579236751975
 20
7.185904261274088
 30
0.0
 10
0.4318579236751975
 20
7.185904261274088
 30
0.0
  0
HATCH
  5
50
330
4B
100
AcDbEntity
  8
LAYER_2
 62
   252
100
AcDbHatch
 10
0.0
 20
0.0
 30
0.0
210
0.0
220
0.0
230
1.0
  2
SOLID
 70
     1
 71
     0
 91
        1
 92
        1
 93
        1
 72
     4
 94
        3
 73
     0
 74
     1
 95
       17
 96
       13
 40
0.0
 40
0.0
 40
0.0
 40
0.0
 40
1.0
 40
1.0
 40
1.0
 40
2.0
 40
2.0
 40
2.0
 40
3.0
 40
3.0
 40
3.0
 40
4.0
 40
4.0
 40
4.0
 40
4.0
 10
0.4318579236751975
 20
7.185904261274088
 10
0.316080937604485
 20
6.998770348807169
 10
0.2127958217506336
 20
6.762537011600797
 10
0.4506432008199886
 20
6.7891890474055
 10
0.7065569980531426
 20
6.817834899629181
 10
1.114475561323606
 20
7.429692399469378
 10
1.114475561323606
 20
7.429692399469378
 10
0.9777838479191264
 20
7.06254534746046
 10
0.4575333963359119
 20
6.45557066334021
 10
0.2553170086451607
 20
6.604116768242558
 10
0.0531277477084092
 20
6.752757816783905
 10
0.4318579236751975
 20
7.185904261274088
 10
0.4318579236751975
 20
7.185904261274088
 97
        0
 75
     2
 76
     1
 98
        0
  0
SPLINE
  5
51
330
4B
100
AcDbEntity
  8
LAYER_2
100
AcDbSpline
210
0.0
220
0.0
230
1.0
 70
    11
 71
     3
 72
    47
 73
    43
 74
     0
 42
0.0000000001
 43
0.0000000001
 40
0.0
 40
0.0
 40
0.0
 40
0.0
 40
1.0
 40
1.0
 40
1.0
 40
2.0
 40
2.0
 40
2.0
 40
3.0
 40
3.0
 40
3.0
 40
4.0
 40
4.0
 40
4.0
 40
5.0
 40
5.0
 40
5.0
 40
6.0
 40
6.0
 40
6.0
 40
7.0
 40
7.0
 40
7.0
 40
8.0
 40
8.0
 40
8.0
 40
9.0
 40
9.0
 40
9.0
 40
10.0
 40
10.0
 40
10.0
 40
11.0
 40
11.0
 40
11.0
 40
12.0
 40
12.0
 40
12.0
 40
13.0
 40
13.0
 40
13.0
 40
14.0
 40
14.0
 40
14.0
 40
14.0
 10
0.6744524846944997
 20
7.47355636068689
 30
0.0
 10
0.6744524846944997
 20
7.47355636068689
 30
0.0
 10
0.8973123321790214
 20
7.690353378652478
 30
0.0
 10
1.050890449948313
 20
7.748431758965832
 30
0.0
 10
1.182183939306853
 20
7.798127972293281
 30
0.0
 10
1.221300718574418
 20
7.688142548201503
 30
0.0
 10
1.221300718574418
 20
7.688142548201503
 30
0.0
 10
1.221300718574418
 20
7.688142548201503
 30
0.0
 10
1.288222420691674
 20
7.780224314653479
 30
0.0
 10
1.310113711169431
 20
7.795578057417308
 30
0.0
 10
1.331977874893188
 20
7.810918236804138
 30
0.0
 10
1.398248534914451
 20
7.783493088510443
 30
0.0
 10
1.398248534914451
 20
7.783493088510443
 30
0.0
 10
1.398248534914451
 20
7.783493088510443
 30
0.0
 10
1.364787683855823
 20
7.769617753839597
 30
0.0
 10
1.349596701615992
 20
7.757030939983737
 30
0.0
 10
1.33441928275316
 20
7.744471252881877
 30
0.0
 10
1.334242958852162
 20
7.714577569974209
 30
0.0
 10
1.334242958852162
 20
7.714577569974209
 30
0.0
 10
1.334242958852162
 20
7.714577569974209
 30
0.0
 10
1.458632689317779
 20
7.774039414741548
 30
0.0
 10
1.484918513943487
 20
7.759838559022706
 30
0.0
 10
1.511217901946194
 20
7.745651266680864
 30
0.0
 10
1.669041356716439
 20
7.643749615280997
 30
0.0
 10
1.669041356716439
 20
7.643749615280997
 30
0.0
 10
1.669041356716439
 20
7.643749615280997
 30
0.0
 10
1.48734635842646
 20
7.715011598038204
 30
0.0
 10
1.414266883151273
 20
7.688169674955503
 30
0.0
 10
1.282213844680741
 20
7.639653475427043
 30
0.0
 10
1.245321459241151
 20
7.577316194735736
 30
0.0
 10
1.21038220008954
 20
7.551844172730019
 30
0.0
 10
1.175456504314928
 20
7.526385714101302
 30
0.0
 10
1.123712221060504
 20
7.446850071374187
 30
0.0
 10
1.123712221060504
 20
7.446850071374187
 30
0.0
 10
1.123712221060504
 20
7.446850071374187
 30
0.0
 10
1.142416117943296
 20
7.466530531400967
 30
0.0
 10
1.14835687706923
 20
7.519834603010375
 30
0.0
 10
1.154772354390158
 20
7.577587462275733
 30
0.0
 10
1.133599922893394
 20
7.639694165558042
 30
0.0
 10
1.035753721216482
 20
7.648008515658949
 30
0.0
 10
0.9629319501042917
 20
7.654179852193881
 30
0.0
 10
0.6744524846944997
 20
7.47355636068689
 30
0.0
 10
0.6744524846944997
 20
7.47355636068689
 30
0.0
  0
HATCH
  5
52
330
4B
100
AcDbEntity
  8
LAYER_2
 62
   252
100
AcDbHatch
 10
0.0
 20
0.0
 30
0.0
210
0.0
220
0.0
230
1.0
  2
SOLID
 70
     1
 71
     0
 91
        1
 92
        1
 93
        1
 72
     4
 94
        3
 73
     0
 74
     1
 95
       47
 96
       43
 40
0.0
 40
0.0
 40
0.0
 40
0.0
 40
1.0
 40
1.0
 40
1.0
 40
2.0
 40
2.0
 40
2.0
 40
3.0
 40
3.0
 40
3.0
 40
4.0
 40
4.0
 40
4.0
 40
5.0
 40
5.0
 40
5.0
 40
6.0
 40
6.0
 40
6.0
 40
7.0
 40
7.0
 40
7.0
 40
8.0
 40
8.0
 40
8.0
 40
9.0
 40
9.0
 40
9.0
 40
10.0
 40
10.0
 40
10.0
 40
11.0
 40
11.0
 40
11.0
 40
12.0
 40
12.0
 40
12.0
 40
13.0
 40
13.0
 40
13.0
 40
14.0
 40
14.0
 40
14.0
 40
14.0
 10
0.6744524846944997
 20
7.47355636068689
 10
0.6744524846944997
 20
7.47355636068689
 10
0.8973123321790214
 20
7.690353378652478
 10
1.050890449948313
 20
7.748431758965832
 10
1.182183939306853
 20
7.798127972293281
 10
1.221300718574418
 20
7.688142548201503
 10
1.221300718574418
 20
7.688142548201503
 10
1.221300718574418
 20
7.688142548201503
 10
1.288222420691674
 20
7.780224314653479
 10
1.310113711169431
 20
7.795578057417308
 10
1.331977874893188
 20
7.810918236804138
 10
1.398248534914451
 20
7.783493088510443
 10
1.398248534914451
 20
7.783493088510443
 10
1.398248534914451
 20
7.783493088510443
 10
1.364787683855823
 20
7.769617753839597
 10
1.349596701615992
 20
7.757030939983737
 10
1.33441928275316
 20
7.744471252881877
 10
1.334242958852162
 20
7.714577569974209
 10
1.334242958852162
 20
7.714577569974209
 10
1.334242958852162
 20
7.714577569974209
 10
1.458632689317779
 20
7.774039414741548
 10
1.484918513943487
 20
7.759838559022706
 10
1.511217901946194
 20
7.745651266680864
 10
1.669041356716439
 20
7.643749615280997
 10
1.669041356716439
 20
7.643749615280997
 10
1.669041356716439
 20
7.643749615280997
 10
1.48734635842646
 20
7.715011598038204
 10
1.414266883151273
 20
7.688169674955503
 10
1.282213844680741
 20
7.639653475427043
 10
1.245321459241151
 20
7.577316194735736
 10
1.21038220008954
 20
7.551844172730019
 10
1.175456504314928
 20
7.526385714101302
 10
1.123712221060504
 20
7.446850071374187
 10
1.123712221060504
 20
7.446850071374187
 10
1.123712221060504
 20
7.446850071374187
 10
1.142416117943296
 20
7.466530531400967
 10
1.14835687706923
 20
7.519834603010375
 10
1.154772354390158
 20
7.577587462275733
 10
1.133599922893394
 20
7.639694165558042
 10
1.035753721216482
 20
7.648008515658949
 10
0.9629319501042917
 20
7.654179852193881
 10
0.6744524846944997
 20
7.47355636068689
 10
0.6744524846944997
 20
7.47355636068689
 97
        0
 75
     2
 76
     1
 98
        0
  0
ENDBLK
  5
4E
330
4B
100
AcDbEntity
  8
0
100
AcDbBlockEnd
  0
BLOCK
  5
55
330
53
100
AcDbEntity
  8
0
100
AcDbBlockBegin
  2
BLOCK_5
 70
     0
 10
0.0
 20
0.0
 30
0.0
  3
BLOCK_5
  1

  0
SPLINE
  5
57
330
53
100
AcDbEntity
  8
LAYER_2
100
AcDbSpline
210
0.0
220
0.0
230
1.0
 70
    11
 71
     3
 72
    20
 73
    16
 74
     0
 42
0.0000000001
 43
0.0000000001
 40
0.0
 40
0.0
 40
0.0
 40
0.0
 40
1.0
 40
1.0
 40
1.0
 40
2.0
 40
2.0
 40
2.0
 40
3.0
 40
3.0
 40
3.0
 40
4.0
 40
4.0
 40
4.0
 40
5.0
 40
5.0
 40
5.0
 40
5.0
 10
0.3048640248256097
 20
7.420767697403477
 30
0.0
 10
0.3089466013025643
 20
7.421486556384469
 30
0.0
 10
0.3164335854064811
 20
7.42221897874246
 30
0.0
 10
0.3264976111403691
 20
7.42221897874246
 30
0.0
 10
0.3447946067131657
 20
7.42221897874246
 30
0.0
 10
0.3608400817039872
 20
7.418163529019505
 30
0.0
 10
0.3608400817039872
 20
7.401032983868696
 30
0.0
 10
0.3608400817039872
 20
7.384675551206878
 30
0.0
 10
0.3425566495081906
 20
7.376523961629968
 30
0.0
 10
0.3152942617384937
 20
7.376523961629968
 30
0.0
 10
0.3152942617384937
 20
7.376523961629968
 30
0.0
 10
0.2962784071847052
 20
7.376523961629968
 30
0.0
 10
0.2962784071847052
 20
7.376523961629968
 30
0.0
 10
0.2962784071847052
 20
7.376523961629968
 30
0.0
 10
0.3048640248256097
 20
7.420767697403477
 30
0.0
 10
0.3048640248256097
 20
7.420767697403477
 30
0.0
  0
SPLINE
  5
58
330
53
100
AcDbEntity
  8
LAYER_2
100
AcDbSpline
210
0.0
220
0.0
230
1.0
 70
    11
 71
     3
 72
    35
 73
    31
 74
     0
 42
0.0000000001
 43
0.0000000001
 40
0.0
 40
0.0
 40
0.0
 40
0.0
 40
1.0
 40
1.0
 40
1.0
 40
2.0
 40
2.0
 40
2.0
 40
3.0
 40
3.0
 40
3.0
 40
4.0
 40
4.0
 40
4.0
 40
5.0
 40
5.0
 40
5.0
 40
6.0
 40
6.0
 40
6.0
 40
7.0
 40
7.0
 40
7.0
 40
8.0
 40
8.0
 40
8.0
 40
9.0
 40
9.0
 40
9.0
 40
10.0
 40
10.0
 40
10.0
 40
10.0
 10
0.201606035725758
 20
7.224519195592659
 30
0.0
 10
0.2143149199746167
 20
7.221562379406692
 30
0.0
 10
0.2430557158372971
 20
7.218971774399721
 30
0.0
 10
0.2759062149309318
 20
7.218971774399721
 30
0.0
 10
0.3229168796124089
 20
7.218971774399721
 30
0.0
 10
0.3587513216460105
 20
7.224519195592659
 30
0.0
 10
0.3818768794307533
 20
7.238326713378505
 30
0.0
 10
0.4045684091515009
 20
7.252120667787352
 30
0.0
 10
0.4209936586983183
 20
7.27116364909514
 30
0.0
 10
0.4209936586983183
 20
7.301274346034806
 30
0.0
 10
0.4209936586983183
 20
7.329472606817492
 30
0.0
 10
0.4049481837074967
 20
7.348502024748281
 30
0.0
 10
0.38037134458377
 20
7.356341656654193
 30
0.0
 10
0.38037134458377
 20
7.356341656654193
 30
0.0
 10
0.38037134458377
 20
7.357114769143185
 30
0.0
 10
0.38037134458377
 20
7.357114769143185
 30
0.0
 10
0.407443845075469
 20
7.365320612228094
 30
0.0
 10
0.4298234171252201
 20
7.381718735020911
 30
0.0
 10
0.4298234171252201
 20
7.413687614609556
 30
0.0
 10
0.4298234171252201
 20
7.439756425203266
 30
0.0
 10
0.4111602103734276
 20
7.458066984153062
 30
0.0
 10
0.3895401874356681
 20
7.465526841502979
 30
0.0
 10
0.3705514596358793
 20
7.472267839871904
 30
0.0
 10
0.3526478019960784
 20
7.474505797076879
 30
0.0
 10
0.32462586511439
 20
7.474505797076879
 30
0.0
 10
0.2955188580727137
 20
7.474505797076879
 30
0.0
 10
0.2679038225010207
 20
7.471860938561909
 30
0.0
 10
0.2469890951672533
 20
7.467764798707954
 30
0.0
 10
0.2469890951672533
 20
7.467764798707954
 30
0.0
 10
0.201606035725758
 20
7.224519195592659
 30
0.0
 10
0.201606035725758
 20
7.224519195592659
 30
0.0
  0
SPLINE
  5
59
330
53
100
AcDbEntity
  8
LAYER_2
100
AcDbSpline
210
0.0
220
0.0
230
1.0
 70
    11
 71
     3
 72
    20
 73
    16
 74
     0
 42
0.0000000001
 43
0.0000000001
 40
0.0
 40
0.0
 40
0.0
 40
0.0
 40
1.0
 40
1.0
 40
1.0
 40
2.0
 40
2.0
 40
2.0
 40
3.0
 40
3.0
 40
3.0
 40
4.0
 40
4.0
 40
4.0
 40
5.0
 40
5.0
 40
5.0
 40
5.0
 10
0.2858210435178215
 20
7.328373973280504
 30
0.0
 10
0.2858210435178215
 20
7.328373973280504
 30
0.0
 10
0.3007407582176556
 20
7.328373973280504
 30
0.0
 10
0.3007407582176556
 20
7.328373973280504
 30
0.0
 10
0.3266739350413672
 20
7.328373973280504
 30
0.0
 10
0.3494468450241139
 20
7.325362903586537
 30
0.0
 10
0.3494468450241139
 20
7.301274346034806
 30
0.0
 10
0.3494468450241139
 20
7.278677759953057
 30
0.0
 10
0.3240562032803963
 20
7.270811001293144
 30
0.0
 10
0.2971735900666952
 20
7.270811001293144
 30
0.0
 10
0.2882217612467948
 20
7.270811001293144
 30
0.0
 10
0.2818741008108654
 20
7.270811001293144
 30
0.0
 10
0.2755400037519358
 20
7.271529860274137
 30
0.0
 10
0.2755400037519358
 20
7.271529860274137
 30
0.0
 10
0.2858210435178215
 20
7.328373973280504
 30
0.0
 10
0.2858210435178215
 20
7.328373973280504
 30
0.0
  0
HATCH
  5
5A
330
53
100
AcDbEntity
  8
LAYER_2
 62
    18
100
AcDbHatch
 10
0.0
 20
0.0
 30
0.0
210
0.0
220
0.0
230
1.0
  2
SOLID
 70
     1
 71
     0
 91
        3
 92
        1
 93
        1
 72
     4
 94
        3
 73
     0
 74
     1
 95
       20
 96
       16
 40
0.0
 40
0.0
 40
0.0
 40
0.0
 40
1.0
 40
1.0
 40
1.0
 40
2.0
 40
2.0
 40
2.0
 40
3.0
 40
3.0
 40
3.0
 40
4.0
 40
4.0
 40
4.0
 40
5.0
 40
5.0
 40
5.0
 40
5.0
 10
0.3048640248256097
 20
7.420767697403477
 10
0.3089466013025643
 20
7.421486556384469
 10
0.3164335854064811
 20
7.42221897874246
 10
0.3264976111403691
 20
7.42221897874246
 10
0.3447946067131657
 20
7.42221897874246
 10
0.3608400817039872
 20
7.418163529019505
 10
0.3608400817039872
 20
7.401032983868696
 10
0.3608400817039872
 20
7.384675551206878
 10
0.3425566495081906
 20
7.376523961629968
 10
0.3152942617384937
 20
7.376523961629968
 10
0.3152942617384937
 20
7.376523961629968
 10
0.2962784071847052
 20
7.376523961629968
 10
0.2962784071847052
 20
7.376523961629968
 10
0.2962784071847052
 20
7.376523961629968
 10
0.3048640248256097
 20
7.420767697403477
 10
0.3048640248256097
 20
7.420767697403477
 97
        0
 92
        1
 93
        1
 72
     4
 94
        3
 73
     0
 74
     1
 95
       35
 96
       31
 40
0.0
 40
0.0
 40
0.0
 40
0.0
 40
1.0
 40
1.0
 40
1.0
 40
2.0
 40
2.0
 40
2.0
 40
3.0
 40
3.0
 40
3.0
 40
4.0
 40
4.0
 40
4.0
 40
5.0
 40
5.0
 40
5.0
 40
6.0
 40
6.0
 40
6.0
 40
7.0
 40
7.0
 40
7.0
 40
8.0
 40
8.0
 40
8.0
 40
9.0
 40
9.0
 40
9.0
 40
10.0
 40
10.0
 40
10.0
 40
10.0
 10
0.201606035725758
 20
7.224519195592659
 10
0.2143149199746167
 20
7.221562379406692
 10
0.2430557158372971
 20
7.218971774399721
 10
0.2759062149309318
 20
7.218971774399721
 10
0.3229168796124089
 20
7.218971774399721
 10
0.3587513216460105
 20
7.224519195592659
 10
0.3818768794307533
 20
7.238326713378505
 10
0.4045684091515009
 20
7.252120667787352
 10
0.4209936586983183
 20
7.27116364909514
 10
0.4209936586983183
 20
7.301274346034806
 10
0.4209936586983183
 20
7.329472606817492
 10
0.4049481837074967
 20
7.348502024748281
 10
0.38037134458377
 20
7.356341656654193
 10
0.38037134458377
 20
7.356341656654193
 10
0.38037134458377
 20
7.357114769143185
 10
0.38037134458377
 20
7.357114769143185
 10
0.407443845075469
 20
7.365320612228094
 10
0.4298234171252201
 20
7.381718735020911
 10
0.4298234171252201
 20
7.413687614609556
 10
0.4298234171252201
 20
7.439756425203266
 10
0.4111602103734276
 20
7.458066984153062
 10
0.3895401874356681
 20
7.465526841502979
 10
0.3705514596358793
 20
7.472267839871904
 10
0.3526478019960784
 20
7.474505797076879
 10
0.32462586511439
 20
7.474505797076879
 10
0.2955188580727137
 20
7.474505797076879
 10
0.2679038225010207
 20
7.471860938561909
 10
0.2469890951672533
 20
7.467764798707954
 10
0.2469890951672533
 20
7.467764798707954
 10
0.201606035725758
 20
7.224519195592659
 10
0.201606035725758
 20
7.224519195592659
 97
        0
 92
        1
 93
        1
 72
     4
 94
        3
 73
     0
 74
     1
 95
       20
 96
       16
 40
0.0
 40
0.0
 40
0.0
 40
0.0
 40
1.0
 40
1.0
 40
1.0
 40
2.0
 40
2.0
 40
2.0
 40
3.0
 40
3.0
 40
3.0
 40
4.0
 40
4.0
 40
4.0
 40
5.0
 40
5.0
 40
5.0
 40
5.0
 10
0.2858210435178215
 20
7.328373973280504
 10
0.2858210435178215
 20
7.328373973280504
 10
0.3007407582176556
 20
7.328373973280504
 10
0.3007407582176556
 20
7.328373973280504
 10
0.3266739350413672
 20
7.328373973280504
 10
0.3494468450241139
 20
7.325362903586537
 10
0.3494468450241139
 20
7.301274346034806
 10
0.3494468450241139
 20
7.278677759953057
 10
0.3240562032803963
 20
7.270811001293144
 10
0.2971735900666952
 20
7.270811001293144
 10
0.2882217612467948
 20
7.270811001293144
 10
0.2818741008108654
 20
7.270811001293144
 10
0.2755400037519358
 20
7.271529860274137
 10
0.2755400037519358
 20
7.271529860274137
 10
0.2858210435178215
 20
7.328373973280504
 10
0.2858210435178215
 20
7.328373973280504
 97
        0
 75
     2
 76
     1
 98
        0
  0
POLYLINE
  5
5B
330
53
100
AcDbEntity
  8
LAYER_2
100
AcDb2dPolyline
 66
     1
 10
0.0
 20
0.0
 30
0.0
  0
VERTEX
  5
5C
330
5B
100
AcDbEntity
  8
LAYER_2
100
AcDbVertex
100
AcDb2dVertex
 10
0.4410267665270955
 20
7.221006280949698
 30
0.0
  0
VERTEX
  5
5D
330
5B
100
AcDbEntity
  8
LAYER_2
100
AcDbVertex
100
AcDb2dVertex
 10
0.4757218848927097
 20
7.404532335134657
 30
0.0
  0
VERTEX
  5
5E
330
5B
100
AcDbEntity
  8
LAYER_2
100
AcDbVertex
100
AcDb2dVertex
 10
0.5421281786839712
 20
7.404532335134657
 30
0.0
  0
VERTEX
  5
5F
330
5B
100
AcDbEntity
  8
LAYER_2
100
AcDbVertex
100
AcDb2dVertex
 10
0.5074466236953569
 20
7.221006280949698
 30
0.0
  0
VERTEX
  5
60
330
5B
100
AcDbEntity
  8
LAYER_2
100
AcDbVertex
100
AcDb2dVertex
 10
0.4410267665270955
 20
7.221006280949698
 30
0.0
  0
SEQEND
  5
61
330
5B
100
AcDbEntity
  8
LAYER_2
  0
SPLINE
  5
62
330
53
100
AcDbEntity
  8
LAYER_2
100
AcDbSpline
210
0.0
220
0.0
230
1.0
 70
    11
 71
     3
 72
    20
 73
    16
 74
     0
 42
0.0000000001
 43
0.0000000001
 40
0.0
 40
0.0
 40
0.0
 40
0.0
 40
1.0
 40
1.0
 40
1.0
 40
2.0
 40
2.0
 40
2.0
 40
3.0
 40
3.0
 40
3.0
 40
4.0
 40
4.0
 40
4.0
 40
5.0
 40
5.0
 40
5.0
 40
5.0
 10
0.5149064810452739
 20
7.423263358771448
 30
0.0
 10
0.4977488091404647
 20
7.423263358771448
 30
0.0
 10
0.4824628832616347
 20
7.434832919352321
 30
0.0
 10
0.4824628832616347
 20
7.454649013149099
 30
0.0
 10
0.4824628832616347
 20
7.478520556668834
 30
0.0
 10
0.5018449489944192
 20
7.49158208871969
 30
0.0
 10
0.5216203526601992
 20
7.49158208871969
 30
0.0
 10
0.5402564326579921
 20
7.49158208871969
 30
0.0
 10
0.5555559219138219
 20
7.480378739317814
 30
0.0
 10
0.5555559219138219
 20
7.459843786540042
 30
0.0
 10
0.5555559219138219
 20
7.436338454199303
 30
0.0
 10
0.5369062785390293
 20
7.423263358771448
 30
0.0
 10
0.5152862556012697
 20
7.423263358771448
 30
0.0
 10
0.5152862556012697
 20
7.423263358771448
 30
0.0
 10
0.5149064810452739
 20
7.423263358771448
 30
0.0
 10
0.5149064810452739
 20
7.423263358771448
 30
0.0
  0
HATCH
  5
63
330
53
100
AcDbEntity
  8
LAYER_2
 62
    18
100
AcDbHatch
 10
0.0
 20
0.0
 30
0.0
210
0.0
220
0.0
230
1.0
  2
SOLID
 70
     1
 71
     0
 91
        2
 92
        1
 93
        4
 72
     1
 10
0.4410267665270955
 20
7.221006280949698
 11
0.4757218848927097
 21
7.404532335134657
 72
     1
 10
0.4757218848927097
 20
7.404532335134657
 11
0.5421281786839712
 21
7.404532335134657
 72
     1
 10
0.5421281786839712
 20
7.404532335134657
 11
0.5074466236953569
 21
7.221006280949698
 72
     1
 10
0.5074466236953569
 20
7.221006280949698
 11
0.4410267665270955
 21
7.221006280949698
 97
        0
 92
        1
 93
        1
 72
     4
 94
        3
 73
     0
 74
     1
 95
       20
 96
       16
 40
0.0
 40
0.0
 40
0.0
 40
0.0
 40
1.0
 40
1.0
 40
1.0
 40
2.0
 40
2.0
 40
2.0
 40
3.0
 40
3.0
 40
3.0
 40
4.0
 40
4.0
 40
4.0
 40
5.0
 40
5.0
 40
5.0
 40
5.0
 10
0.5149064810452739
 20
7.423263358771448
 10
0.4977488091404647
 20
7.423263358771448
 10
0.4824628832616347
 20
7.434832919352321
 10
0.4824628832616347
 20
7.454649013149099
 10
0.4824628832616347
 20
7.478520556668834
 10
0.5018449489944192
 20
7.49158208871969
 10
0.5216203526601992
 20
7.49158208871969
 10
0.5402564326579921
 20
7.49158208871969
 10
0.5555559219138219
 20
7.480378739317814
 10
0.5555559219138219
 20
7.459843786540042
 10
0.5555559219138219
 20
7.436338454199303
 10
0.5369062785390293
 20
7.423263358771448
 10
0.5152862556012697
 20
7.423263358771448
 10
0.5152862556012697
 20
7.423263358771448
 10
0.5149064810452739
 20
7.423263358771448
 10
0.5149064810452739
 20
7.423263358771448
 97
        0
 75
     2
 76
     1
 98
        0
  0
SPLINE
  5
64
330
53
100
AcDbEntity
  8
LAYER_2
100
AcDbSpline
210
0.0
220
0.0
230
1.0
 70
    11
 71
     3
 72
    41
 73
    37
 74
     0
 42
0.0000000001
 43
0.0000000001
 40
0.0
 40
0.0
 40
0.0
 40
0.0
 40
1.0
 40
1.0
 40
1.0
 40
2.0
 40
2.0
 40
2.0
 40
3.0
 40
3.0
 40
3.0
 40
4.0
 40
4.0
 40
4.0
 40
5.0
 40
5.0
 40
5.0
 40
6.0
 40
6.0
 40
6.0
 40
7.0
 40
7.0
 40
7.0
 40
8.0
 40
8.0
 40
8.0
 40
9.0
 40
9.0
 40
9.0
 40
10.0
 40
10.0
 40
10.0
 40
11.0
 40
11.0
 40
11.0
 40
12.0
 40
12.0
 40
12.0
 40
12.0
 10
0.5516089792068658
 20
7.221006280949698
 30
0.0
 10
0.5516089792068658
 20
7.221006280949698
 30
0.0
 10
0.5702586225816584
 20
7.319856172524599
 30
0.0
 10
0.5702586225816584
 20
7.319856172524599
 30
0.0
 10
0.5762129450845922
 20
7.352340460439238
 30
0.0
 10
0.5780711277335715
 20
7.390358606169815
 30
0.0
 10
0.5795766625805547
 20
7.404532335134657
 30
0.0
 10
0.5795766625805547
 20
7.404532335134657
 30
0.0
 10
0.6369768740439165
 20
7.404532335134657
 30
0.0
 10
0.6369768740439165
 20
7.404532335134657
 30
0.0
 10
0.6362444516859246
 20
7.391470803083802
 30
0.0
 10
0.6354984659509328
 20
7.378436397786947
 30
0.0
 10
0.6343862690369453
 20
7.364995091180097
 30
0.0
 10
0.6343862690369453
 20
7.364995091180097
 30
0.0
 10
0.6354984659509328
 20
7.364995091180097
 30
0.0
 10
0.6354984659509328
 20
7.364995091180097
 30
0.0
 10
0.6485464346247878
 20
7.389232845878827
 30
0.0
 10
0.6705191053645434
 20
7.408696291873611
 30
0.0
 10
0.69959898565222
 20
7.408696291873611
 30
0.0
 10
0.7033289143271786
 20
7.408696291873611
 30
0.0
 10
0.7070588430021371
 20
7.408696291873611
 30
0.0
 10
0.7107752083000958
 20
7.408696291873611
 30
0.0
 10
0.7107752083000958
 20
7.408696291873611
 30
0.0
 10
0.6977272396262408
 20
7.344460138402325
 30
0.0
 10
0.6977272396262408
 20
7.344460138402325
 30
0.0
 10
0.6951230712422698
 20
7.344460138402325
 30
0.0
 10
0.6925189028582988
 20
7.344460138402325
 30
0.0
 10
0.6899011710973278
 20
7.344460138402325
 30
0.0
 10
0.6462949140428128
 20
7.344460138402325
 30
0.0
 10
0.6354984659509328
 20
7.311379061899693
 30
0.0
 10
0.6291508055150035
 20
7.277891084087066
 30
0.0
 10
0.6291508055150035
 20
7.277891084087066
 30
0.0
 10
0.6183272306691239
 20
7.221006280949698
 30
0.0
 10
0.6183272306691239
 20
7.221006280949698
 30
0.0
 10
0.6183272306691239
 20
7.221006280949698
 30
0.0
 10
0.5516089792068658
 20
7.221006280949698
 30
0.0
 10
0.5516089792068658
 20
7.221006280949698
 30
0.0
  0
HATCH
  5
65
330
53
100
AcDbEntity
  8
LAYER_2
 62
    18
100
AcDbHatch
 10
0.0
 20
0.0
 30
0.0
210
0.0
220
0.0
230
1.0
  2
SOLID
 70
     1
 71
     0
 91
        1
 92
        1
 93
        1
 72
     4
 94
        3
 73
     0
 74
     1
 95
       41
 96
       37
 40
0.0
 40
0.0
 40
0.0
 40
0.0
 40
1.0
 40
1.0
 40
1.0
 40
2.0
 40
2.0
 40
2.0
 40
3.0
 40
3.0
 40
3.0
 40
4.0
 40
4.0
 40
4.0
 40
5.0
 40
5.0
 40
5.0
 40
6.0
 40
6.0
 40
6.0
 40
7.0
 40
7.0
 40
7.0
 40
8.0
 40
8.0
 40
8.0
 40
9.0
 40
9.0
 40
9.0
 40
10.0
 40
10.0
 40
10.0
 40
11.0
 40
11.0
 40
11.0
 40
12.0
 40
12.0
 40
12.0
 40
12.0
 10
0.5516089792068658
 20
7.221006280949698
 10
0.5516089792068658
 20
7.221006280949698
 10
0.5702586225816584
 20
7.319856172524599
 10
0.5702586225816584
 20
7.319856172524599
 10
0.5762129450845922
 20
7.352340460439238
 10
0.5780711277335715
 20
7.390358606169815
 10
0.5795766625805547
 20
7.404532335134657
 10
0.5795766625805547
 20
7.404532335134657
 10
0.6369768740439165
 20
7.404532335134657
 10
0.6369768740439165
 20
7.404532335134657
 10
0.6362444516859246
 20
7.391470803083802
 10
0.6354984659509328
 20
7.378436397786947
 10
0.6343862690369453
 20
7.364995091180097
 10
0.6343862690369453
 20
7.364995091180097
 10
0.6354984659509328
 20
7.364995091180097
 10
0.6354984659509328
 20
7.364995091180097
 10
0.6485464346247878
 20
7.389232845878827
 10
0.6705191053645434
 20
7.408696291873611
 10
0.69959898565222
 20
7.408696291873611
 10
0.7033289143271786
 20
7.408696291873611
 10
0.7070588430021371
 20
7.408696291873611
 10
0.7107752083000958
 20
7.408696291873611
 10
0.7107752083000958
 20
7.408696291873611
 10
0.6977272396262408
 20
7.344460138402325
 10
0.6977272396262408
 20
7.344460138402325
 10
0.6951230712422698
 20
7.344460138402325
 10
0.6925189028582988
 20
7.344460138402325
 10
0.6899011710973278
 20
7.344460138402325
 10
0.6462949140428128
 20
7.344460138402325
 10
0.6354984659509328
 20
7.311379061899693
 10
0.6291508055150035
 20
7.277891084087066
 10
0.6291508055150035
 20
7.277891084087066
 10
0.6183272306691239
 20
7.221006280949698
 10
0.6183272306691239
 20
7.221006280949698
 10
0.6183272306691239
 20
7.221006280949698
 10
0.5516089792068658
 20
7.221006280949698
 10
0.5516089792068658
 20
7.221006280949698
 97
        0
 75
     2
 76
     1
 98
        0
  0
SPLINE
  5
66
330
53
100
AcDbEntity
  8
LAYER_2
100
AcDbSpline
210
0.0
220
0.0
230
1.0
 70
    11
 71
     3
 72
    20
 73
    16
 74
     0
 42
0.0000000001
 43
0.0000000001
 40
0.0
 40
0.0
 40
0.0
 40
0.0
 40
1.0
 40
1.0
 40
1.0
 40
2.0
 40
2.0
 40
2.0
 40
3.0
 40
3.0
 40
3.0
 40
4.0
 40
4.0
 40
4.0
 40
5.0
 40
5.0
 40
5.0
 40
5.0
 10
0.846354724790588
 20
7.319679848623601
 30
0.0
 10
0.8388813040636711
 20
7.280875027027032
 30
0.0
 10
0.8213438576028662
 20
7.269753057887156
 30
0.0
 10
0.8086485367310073
 20
7.269753057887156
 30
0.0
 10
0.7974451873291319
 20
7.269753057887156
 30
0.0
 10
0.7847498664572731
 20
7.277538436285069
 30
0.0
 10
0.7847498664572731
 20
7.302006768392797
 30
0.0
 10
0.7847498664572731
 20
7.332063211824464
 30
0.0
 10
0.8037928477650613
 20
7.35840328995817
 30
0.0
 10
0.8325472070047416
 20
7.35840328995817
 30
0.0
 10
0.8407530500896503
 20
7.35840328995817
 30
0.0
 10
0.8489588931745591
 20
7.355432910395203
 30
0.0
 10
0.8530685964055134
 20
7.351743671851244
 30
0.0
 10
0.8530685964055134
 20
7.351743671851244
 30
0.0
 10
0.846354724790588
 20
7.319679848623601
 30
0.0
 10
0.846354724790588
 20
7.319679848623601
 30
0.0
  0
SPLINE
  5
67
330
53
100
AcDbEntity
  8
LAYER_2
100
AcDbSpline
210
0.0
220
0.0
230
1.0
 70
    11
 71
     3
 72
    38
 73
    34
 74
     0
 42
0.0000000001
 43
0.0000000001
 40
0.0
 40
0.0
 40
0.0
 40
0.0
 40
1.0
 40
1.0
 40
1.0
 40
2.0
 40
2.0
 40
2.0
 40
3.0
 40
3.0
 40
3.0
 40
4.0
 40
4.0
 40
4.0
 40
5.0
 40
5.0
 40
5.0
 40
6.0
 40
6.0
 40
6.0
 40
7.0
 40
7.0
 40
7.0
 40
8.0
 40
8.0
 40
8.0
 40
9.0
 40
9.0
 40
9.0
 40
10.0
 40
10.0
 40
10.0
 40
11.0
 40
11.0
 40
11.0
 40
11.0
 10
0.8788254493282269
 20
7.488530328894723
 30
0.0
 10
0.8788254493282269
 20
7.488530328894723
 30
0.0
 10
0.8624137631584095
 20
7.404993489952652
 30
0.0
 10
0.8624137631584095
 20
7.404993489952652
 30
0.0
 10
0.8534348075845093
 20
7.407950306138619
 30
0.0
 10
0.8441167675856129
 20
7.408696291873611
 30
0.0
 10
0.8385150928846752
 20
7.408696291873611
 30
0.0
 10
0.7627907590945173
 20
7.408696291873611
 30
0.0
 10
0.7147764045150513
 20
7.353194953190228
 30
0.0
 10
0.7147764045150513
 20
7.290884799252921
 30
0.0
 10
0.7147764045150513
 20
7.239235459637495
 30
0.0
 10
0.7471521854136912
 20
7.216869450964744
 30
0.0
 10
0.77693736130536
 20
7.216869450964744
 30
0.0
 10
0.7978113985081279
 20
7.216869450964744
 30
0.0
 10
0.8217236321588619
 20
7.223203548023673
 30
0.0
 10
0.8388813040636711
 20
7.248512809505392
 30
0.0
 10
0.8388813040636711
 20
7.248512809505392
 30
0.0
 10
0.8396272897986629
 20
7.248512809505392
 30
0.0
 10
0.8396272897986629
 20
7.248512809505392
 30
0.0
 10
0.8396272897986629
 20
7.248512809505392
 30
0.0
 10
0.8381353183286795
 20
7.221006280949698
 30
0.0
 10
0.8381353183286795
 20
7.221006280949698
 30
0.0
 10
0.8381353183286795
 20
7.221006280949698
 30
0.0
 10
0.900852373575982
 20
7.221006280949698
 30
0.0
 10
0.900852373575982
 20
7.221006280949698
 30
0.0
 10
0.9012321481319777
 20
7.245569556696425
 30
0.0
 10
0.9045823022509405
 20
7.276494056256081
 30
0.0
 10
0.9098042023958824
 20
7.303688627140779
 30
0.0
 10
0.9098042023958824
 20
7.303688627140779
 30
0.0
 10
0.9449062220714921
 20
7.488530328894723
 30
0.0
 10
0.9449062220714921
 20
7.488530328894723
 30
0.0
 10
0.9449062220714921
 20
7.488530328894723
 30
0.0
 10
0.8788254493282269
 20
7.488530328894723
 30
0.0
 10
0.8788254493282269
 20
7.488530328894723
 30
0.0
  0
HATCH
  5
68
330
53
100
AcDbEntity
  8
LAYER_2
 62
    18
100
AcDbHatch
 10
0.0
 20
0.0
 30
0.0
210
0.0
220
0.0
230
1.0
  2
SOLID
 70
     1
 71
     0
 91
        2
 92
        1
 93
        1
 72
     4
 94
        3
 73
     0
 74
     1
 95
       20
 96
       16
 40
0.0
 40
0.0
 40
0.0
 40
0.0
 40
1.0
 40
1.0
 40
1.0
 40
2.0
 40
2.0
 40
2.0
 40
3.0
 40
3.0
 40
3.0
 40
4.0
 40
4.0
 40
4.0
 40
5.0
 40
5.0
 40
5.0
 40
5.0
 10
0.846354724790588
 20
7.319679848623601
 10
0.8388813040636711
 20
7.280875027027032
 10
0.8213438576028662
 20
7.269753057887156
 10
0.8086485367310073
 20
7.269753057887156
 10
0.7974451873291319
 20
7.269753057887156
 10
0.7847498664572731
 20
7.277538436285069
 10
0.7847498664572731
 20
7.302006768392797
 10
0.7847498664572731
 20
7.332063211824464
 10
0.8037928477650613
 20
7.35840328995817
 10
0.8325472070047416
 20
7.35840328995817
 10
0.8407530500896503
 20
7.35840328995817
 10
0.8489588931745591
 20
7.355432910395203
 10
0.8530685964055134
 20
7.351743671851244
 10
0.8530685964055134
 20
7.351743671851244
 10
0.846354724790588
 20
7.319679848623601
 10
0.846354724790588
 20
7.319679848623601
 97
        0
 92
        1
 93
        1
 72
     4
 94
        3
 73
     0
 74
     1
 95
       38
 96
       34
 40
0.0
 40
0.0
 40
0.0
 40
0.0
 40
1.0
 40
1.0
 40
1.0
 40
2.0
 40
2.0
 40
2.0
 40
3.0
 40
3.0
 40
3.0
 40
4.0
 40
4.0
 40
4.0
 40
5.0
 40
5.0
 40
5.0
 40
6.0
 40
6.0
 40
6.0
 40
7.0
 40
7.0
 40
7.0
 40
8.0
 40
8.0
 40
8.0
 40
9.0
 40
9.0
 40
9.0
 40
10.0
 40
10.0
 40
10.0
 40
11.0
 40
11.0
 40
11.0
 40
11.0
 10
0.8788254493282269
 20
7.488530328894723
 10
0.8788254493282269
 20
7.488530328894723
 10
0.8624137631584095
 20
7.404993489952652
 10
0.8624137631584095
 20
7.404993489952652
 10
0.8534348075845093
 20
7.407950306138619
 10
0.8441167675856129
 20
7.408696291873611
 10
0.8385150928846752
 20
7.408696291873611
 10
0.7627907590945173
 20
7.408696291873611
 10
0.7147764045150513
 20
7.353194953190228
 10
0.7147764045150513
 20
7.290884799252921
 10
0.7147764045150513
 20
7.239235459637495
 10
0.7471521854136912
 20
7.216869450964744
 10
0.77693736130536
 20
7.216869450964744
 10
0.7978113985081279
 20
7.216869450964744
 10
0.8217236321588619
 20
7.223203548023673
 10
0.8388813040636711
 20
7.248512809505392
 10
0.8388813040636711
 20
7.248512809505392
 10
0.8396272897986629
 20
7.248512809505392
 10
0.8396272897986629
 20
7.248512809505392
 10
0.8396272897986629
 20
7.248512809505392
 10
0.8381353183286795
 20
7.221006280949698
 10
0.8381353183286795
 20
7.221006280949698
 10
0.8381353183286795
 20
7.221006280949698
 10
0.900852373575982
 20
7.221006280949698
 10
0.900852373575982
 20
7.221006280949698
 10
0.9012321481319777
 20
7.245569556696425
 10
0.9045823022509405
 20
7.276494056256081
 10
0.9098042023958824
 20
7.303688627140779
 10
0.9098042023958824
 20
7.303688627140779
 10
0.9449062220714921
 20
7.488530328894723
 10
0.9449062220714921
 20
7.488530328894723
 10
0.9449062220714921
 20
7.488530328894723
 10
0.8788254493282269
 20
7.488530328894723
 10
0.8788254493282269
 20
7.488530328894723
 97
        0
 75
     2
 76
     1
 98
        0
  0
ENDBLK
  5
56
330
53
100
AcDbEntity
  8
0
100
AcDbBlockEnd
  0
BLOCK
  5
6B
330
69
100
AcDbEntity
  8
0
100
AcDbBlockBegin
  2
BLOCK_6
 70
     0
 10
0.0
 20
0.0
 30
0.0
  3
BLOCK_6
  1

  0
SPLINE
  5
6D
330
69
100
AcDbEntity
  8
LAYER_2
100
AcDbSpline
210
0.0
220
0.0
230
1.0
 70
    11
 71
     3
 72
    20
 73
    16
 74
     0
 42
0.0000000001
 43
0.0000000001
 40
0.0
 40
0.0
 40
0.0
 40
0.0
 40
1.0
 40
1.0
 40
1.0
 40
2.0
 40
2.0
 40
2.0
 40
3.0
 40
3.0
 40
3.0
 40
4.0
 40
4.0
 40
4.0
 40
5.0
 40
5.0
 40
5.0
 40
5.0
 10
1.134779936692381
 20
7.192048471055021
 30
0.0
 10
1.138781132907336
 20
7.192848710298011
 30
0.0
 10
1.145671328423259
 20
7.193445498886005
 30
0.0
 10
1.154351889703163
 20
7.193445498886005
 30
0.0
 10
1.172377617735962
 20
7.193445498886005
 30
0.0
 10
1.185737544080814
 20
7.186718063894079
 30
0.0
 10
1.185737544080814
 20
7.170998109951254
 30
0.0
 10
1.185737544080814
 20
7.153189395950452
 30
0.0
 10
1.168647689061004
 20
7.143166060347564
 30
0.0
 10
1.141371737914307
 20
7.143166060347564
 30
0.0
 10
1.141371737914307
 20
7.143166060347564
 30
0.0
 10
1.125434769939484
 20
7.143166060347564
 30
0.0
 10
1.125434769939484
 20
7.143166060347564
 30
0.0
 10
1.125434769939484
 20
7.143166060347564
 30
0.0
 10
1.134779936692381
 20
7.192048471055021
 30
0.0
 10
1.134779936692381
 20
7.192048471055021
 30
0.0
  0
SPLINE
  5
6E
330
69
100
AcDbEntity
  8
LAYER_2
100
AcDbSpline
210
0.0
220
0.0
230
1.0
 70
    11
 71
     3
 72
    35
 73
    31
 74
     0
 42
0.0000000001
 43
0.0000000001
 40
0.0
 40
0.0
 40
0.0
 40
0.0
 40
1.0
 40
1.0
 40
1.0
 40
2.0
 40
2.0
 40
2.0
 40
3.0
 40
3.0
 40
3.0
 40
4.0
 40
4.0
 40
4.0
 40
5.0
 40
5.0
 40
5.0
 40
6.0
 40
6.0
 40
6.0
 40
7.0
 40
7.0
 40
7.0
 40
8.0
 40
8.0
 40
8.0
 40
9.0
 40
9.0
 40
9.0
 40
10.0
 40
10.0
 40
10.0
 40
10.0
 10
1.032010229164523
 20
6.988570689303283
 30
0.0
 10
1.04486831056038
 20
6.985830887149313
 30
0.0
 10
1.069879177748102
 20
6.983511549682339
 30
0.0
 10
1.101834493959747
 20
6.983511549682339
 30
0.0
 10
1.148017792644233
 20
6.983511549682339
 30
0.0
 10
1.182156812552854
 20
6.989845646741268
 30
0.0
 10
1.204766962011602
 20
7.004317770000108
 30
0.0
 10
1.226142844163365
 20
7.018084597654955
 30
0.0
 10
1.241700037582192
 20
7.037846437943735
 30
0.0
 10
1.241700037582192
 20
7.06613964236542
 30
0.0
 10
1.241700037582192
 20
7.093008692202122
 30
0.0
 10
1.227187224192353
 20
7.113597898487892
 30
0.0
 10
1.202094976742632
 20
7.121708797933803
 30
0.0
 10
1.202094976742632
 20
7.121708797933803
 30
0.0
 10
1.202094976742632
 20
7.122671797700792
 30
0.0
 10
1.202094976742632
 20
7.122671797700792
 30
0.0
 10
1.22923529411933
 20
7.130959021047699
 30
0.0
 10
1.252103147741076
 20
7.14977142494649
 30
0.0
 10
1.252103147741076
 20
7.181970881944133
 30
0.0
 10
1.252103147741076
 20
7.205937369102866
 30
0.0
 10
1.236681588092247
 20
7.223691829595668
 30
0.0
 10
1.217258832228463
 20
7.232073996581575
 30
0.0
 10
1.198582062099671
 20
7.241242839433473
 30
0.0
 10
1.17887447531889
 20
7.243738500801445
 30
0.0
 10
1.151774848073192
 20
7.243738500801445
 30
0.0
 10
1.124485333549495
 20
7.243738500801445
 30
0.0
 10
1.098443649709785
 20
7.241242839433473
 30
0.0
 10
1.078885260076002
 20
7.237323023480517
 30
0.0
 10
1.078885260076002
 20
7.237323023480517
 30
0.0
 10
1.032010229164523
 20
6.988570689303283
 30
0.0
 10
1.032010229164523
 20
6.988570689303283
 30
0.0
  0
SPLINE
  5
6F
330
69
100
AcDbEntity
  8
LAYER_2
100
AcDbSpline
210
0.0
220
0.0
230
1.0
 70
    11
 71
     3
 72
    20
 73
    16
 74
     0
 42
0.0000000001
 43
0.0000000001
 40
0.0
 40
0.0
 40
0.0
 40
0.0
 40
1.0
 40
1.0
 40
1.0
 40
2.0
 40
2.0
 40
2.0
 40
3.0
 40
3.0
 40
3.0
 40
4.0
 40
4.0
 40
4.0
 40
5.0
 40
5.0
 40
5.0
 40
5.0
 10
1.115438561090596
 20
7.095979071765089
 30
0.0
 10
1.115438561090596
 20
7.095979071765089
 30
0.0
 10
1.128771360681447
 20
7.095979071765089
 30
0.0
 10
1.128771360681447
 20
7.095979071765089
 30
0.0
 10
1.153063368888177
 20
7.095979071765089
 30
0.0
 10
1.172825209176958
 20
7.090730044866147
 30
0.0
 10
1.172825209176958
 20
7.067604487081404
 30
0.0
 10
1.172825209176958
 20
7.044411112411662
 30
0.0
 10
1.149333440213219
 20
7.034252143038775
 30
0.0
 10
1.123020488833511
 20
7.034252143038775
 30
0.0
 10
1.115289363943597
 20
7.034252143038775
 30
0.0
 10
1.109552055472661
 20
7.034252143038775
 30
0.0
 10
1.103950380771723
 20
7.034889621757768
 30
0.0
 10
1.103950380771723
 20
7.034889621757768
 30
0.0
 10
1.115438561090596
 20
7.095979071765089
 30
0.0
 10
1.115438561090596
 20
7.095979071765089
 30
0.0
  0
HATCH
  5
70
330
69
100
AcDbEntity
  8
LAYER_2
 62
    18
100
AcDbHatch
 10
0.0
 20
0.0
 30
0.0
210
0.0
220
0.0
230
1.0
  2
SOLID
 70
     1
 71
     0
 91
        3
 92
        1
 93
        1
 72
     4
 94
        3
 73
     0
 74
     1
 95
       20
 96
       16
 40
0.0
 40
0.0
 40
0.0
 40
0.0
 40
1.0
 40
1.0
 40
1.0
 40
2.0
 40
2.0
 40
2.0
 40
3.0
 40
3.0
 40
3.0
 40
4.0
 40
4.0
 40
4.0
 40
5.0
 40
5.0
 40
5.0
 40
5.0
 10
1.134779936692381
 20
7.192048471055021
 10
1.138781132907336
 20
7.192848710298011
 10
1.145671328423259
 20
7.193445498886005
 10
1.154351889703163
 20
7.193445498886005
 10
1.172377617735962
 20
7.193445498886005
 10
1.185737544080814
 20
7.186718063894079
 10
1.185737544080814
 20
7.170998109951254
 10
1.185737544080814
 20
7.153189395950452
 10
1.168647689061004
 20
7.143166060347564
 10
1.141371737914307
 20
7.143166060347564
 10
1.141371737914307
 20
7.143166060347564
 10
1.125434769939484
 20
7.143166060347564
 10
1.125434769939484
 20
7.143166060347564
 10
1.125434769939484
 20
7.143166060347564
 10
1.134779936692381
 20
7.192048471055021
 10
1.134779936692381
 20
7.192048471055021
 97
        0
 92
        1
 93
        1
 72
     4
 94
        3
 73
     0
 74
     1
 95
       35
 96
       31
 40
0.0
 40
0.0
 40
0.0
 40
0.0
 40
1.0
 40
1.0
 40
1.0
 40
2.0
 40
2.0
 40
2.0
 40
3.0
 40
3.0
 40
3.0
 40
4.0
 40
4.0
 40
4.0
 40
5.0
 40
5.0
 40
5.0
 40
6.0
 40
6.0
 40
6.0
 40
7.0
 40
7.0
 40
7.0
 40
8.0
 40
8.0
 40
8.0
 40
9.0
 40
9.0
 40
9.0
 40
10.0
 40
10.0
 40
10.0
 40
10.0
 10
1.032010229164523
 20
6.988570689303283
 10
1.04486831056038
 20
6.985830887149313
 10
1.069879177748102
 20
6.983511549682339
 10
1.101834493959747
 20
6.983511549682339
 10
1.148017792644233
 20
6.983511549682339
 10
1.182156812552854
 20
6.989845646741268
 10
1.204766962011602
 20
7.004317770000108
 10
1.226142844163365
 20
7.018084597654955
 10
1.241700037582192
 20
7.037846437943735
 10
1.241700037582192
 20
7.06613964236542
 10
1.241700037582192
 20
7.093008692202122
 10
1.227187224192353
 20
7.113597898487892
 10
1.202094976742632
 20
7.121708797933803
 10
1.202094976742632
 20
7.121708797933803
 10
1.202094976742632
 20
7.122671797700792
 10
1.202094976742632
 20
7.122671797700792
 10
1.22923529411933
 20
7.130959021047699
 10
1.252103147741076
 20
7.14977142494649
 10
1.252103147741076
 20
7.181970881944133
 10
1.252103147741076
 20
7.205937369102866
 10
1.236681588092247
 20
7.223691829595668
 10
1.217258832228463
 20
7.232073996581575
 10
1.198582062099671
 20
7.241242839433473
 10
1.17887447531889
 20
7.243738500801445
 10
1.151774848073192
 20
7.243738500801445
 10
1.124485333549495
 20
7.243738500801445
 10
1.098443649709785
 20
7.241242839433473
 10
1.078885260076002
 20
7.237323023480517
 10
1.078885260076002
 20
7.237323023480517
 10
1.032010229164523
 20
6.988570689303283
 10
1.032010229164523
 20
6.988570689303283
 97
        0
 92
        1
 93
        1
 72
     4
 94
        3
 73
     0
 74
     1
 95
       20
 96
       16
 40
0.0
 40
0.0
 40
0.0
 40
0.0
 40
1.0
 40
1.0
 40
1.0
 40
2.0
 40
2.0
 40
2.0
 40
3.0
 40
3.0
 40
3.0
 40
4.0
 40
4.0
 40
4.0
 40
5.0
 40
5.0
 40
5.0
 40
5.0
 10
1.115438561090596
 20
7.095979071765089
 10
1.115438561090596
 20
7.095979071765089
 10
1.128771360681447
 20
7.095979071765089
 10
1.128771360681447
 20
7.095979071765089
 10
1.153063368888177
 20
7.095979071765089
 10
1.172825209176958
 20
7.090730044866147
 10
1.172825209176958
 20
7.067604487081404
 10
1.172825209176958
 20
7.044411112411662
 10
1.149333440213219
 20
7.034252143038775
 10
1.123020488833511
 20
7.034252143038775
 10
1.115289363943597
 20
7.034252143038775
 10
1.109552055472661
 20
7.034252143038775
 10
1.103950380771723
 20
7.034889621757768
 10
1.103950380771723
 20
7.034889621757768
 10
1.115438561090596
 20
7.095979071765089
 10
1.115438561090596
 20
7.095979071765089
 97
        0
 75
     2
 76
     1
 98
        0
  0
SPLINE
  5
71
330
69
100
AcDbEntity
  8
LAYER_2
100
AcDbSpline
210
0.0
220
0.0
230
1.0
 70
    11
 71
     3
 72
    20
 73
    16
 74
     0
 42
0.0000000001
 43
0.0000000001
 40
0.0
 40
0.0
 40
0.0
 40
0.0
 40
1.0
 40
1.0
 40
1.0
 40
2.0
 40
2.0
 40
2.0
 40
3.0
 40
3.0
 40
3.0
 40
4.0
 40
4.0
 40
4.0
 40
5.0
 40
5.0
 40
5.0
 40
5.0
 10
1.385865171713588
 20
7.089278763527163
 30
0.0
 10
1.377984849676676
 20
7.045089281261655
 30
0.0
 10
1.361722360653857
 20
7.033207763009787
 30
0.0
 10
1.34974589876299
 20
7.033207763009787
 30
0.0
 10
1.338623929623114
 20
7.033207763009787
 30
0.0
 10
1.331109818765197
 20
7.042539366385682
 30
0.0
 10
1.331109818765197
 20
7.059900488945489
 30
0.0
 10
1.331109818765197
 20
7.087325637239185
 30
0.0
 10
1.351142926593975
 20
7.128137838631731
 30
0.0
 10
1.381280750287639
 20
7.128137838631731
 30
0.0
 10
1.384630904406602
 20
7.128137838631731
 30
0.0
 10
1.388632100621558
 20
7.127717373944735
 30
0.0
 10
1.392741803852512
 20
7.126998514963743
 30
0.0
 10
1.392741803852512
 20
7.126998514963743
 30
0.0
 10
1.385865171713588
 20
7.089278763527163
 30
0.0
 10
1.385865171713588
 20
7.089278763527163
 30
0.0
  0
SPLINE
  5
72
330
69
100
AcDbEntity
  8
LAYER_2
100
AcDbSpline
210
0.0
220
0.0
230
1.0
 70
    11
 71
     3
 72
    32
 73
    28
 74
     0
 42
0.0000000001
 43
0.0000000001
 40
0.0
 40
0.0
 40
0.0
 40
0.0
 40
1.0
 40
1.0
 40
1.0
 40
2.0
 40
2.0
 40
2.0
 40
3.0
 40
3.0
 40
3.0
 40
4.0
 40
4.0
 40
4.0
 40
5.0
 40
5.0
 40
5.0
 40
6.0
 40
6.0
 40
6.0
 40
7.0
 40
7.0
 40
7.0
 40
8.0
 40
8.0
 40
8.0
 40
9.0
 40
9.0
 40
9.0
 40
9.0
 10
1.439467637616992
 20
6.985003521152323
 30
0.0
 10
1.438925102536998
 20
7.009566796899049
 30
0.0
 10
1.442926298751954
 20
7.047815520038624
 30
0.0
 10
1.44685967808191
 20
7.068364036193396
 30
0.0
 10
1.44685967808191
 20
7.068364036193396
 30
0.0
 10
1.4657127721117
 20
7.166481505410305
 30
0.0
 10
1.4657127721117
 20
7.166481505410305
 30
0.0
 10
1.449490973219881
 20
7.171906856210244
 30
0.0
 10
1.423639176658168
 20
7.176884615569189
 30
0.0
 10
1.399414985336438
 20
7.176884615569189
 30
0.0
 10
1.302789487589512
 20
7.176884615569189
 30
0.0
 10
1.263306497142951
 20
7.109949350074933
 30
0.0
 10
1.263306497142951
 20
7.047639196137626
 30
0.0
 10
1.263306497142951
 20
7.007016882023078
 30
0.0
 10
1.287530688464682
 20
6.980907381298368
 30
0.0
 10
1.321317060571306
 20
6.980907381298368
 30
0.0
 10
1.341092464237086
 20
6.980907381298368
 30
0.0
 10
1.364258712152829
 20
6.989615069332271
 30
0.0
 10
1.380711088453646
 20
7.017528499197961
 30
0.0
 10
1.380711088453646
 20
7.017528499197961
 30
0.0
 10
1.381674088220635
 20
7.017528499197961
 30
0.0
 10
1.381674088220635
 20
7.017528499197961
 30
0.0
 10
1.381280750287639
 20
7.006596417336082
 30
0.0
 10
1.380616144814647
 20
6.995799969244202
 30
0.0
 10
1.379937975964654
 20
6.985003521152323
 30
0.0
 10
1.379937975964654
 20
6.985003521152323
 30
0.0
 10
1.439467637616992
 20
6.985003521152323
 30
0.0
 10
1.439467637616992
 20
6.985003521152323
 30
0.0
  0
HATCH
  5
73
330
69
100
AcDbEntity
  8
LAYER_2
 62
    18
100
AcDbHatch
 10
0.0
 20
0.0
 30
0.0
210
0.0
220
0.0
230
1.0
  2
SOLID
 70
     1
 71
     0
 91
        2
 92
        1
 93
        1
 72
     4
 94
        3
 73
     0
 74
     1
 95
       20
 96
       16
 40
0.0
 40
0.0
 40
0.0
 40
0.0
 40
1.0
 40
1.0
 40
1.0
 40
2.0
 40
2.0
 40
2.0
 40
3.0
 40
3.0
 40
3.0
 40
4.0
 40
4.0
 40
4.0
 40
5.0
 40
5.0
 40
5.0
 40
5.0
 10
1.385865171713588
 20
7.089278763527163
 10
1.377984849676676
 20
7.045089281261655
 10
1.361722360653857
 20
7.033207763009787
 10
1.34974589876299
 20
7.033207763009787
 10
1.338623929623114
 20
7.033207763009787
 10
1.331109818765197
 20
7.042539366385682
 10
1.331109818765197
 20
7.059900488945489
 10
1.331109818765197
 20
7.087325637239185
 10
1.351142926593975
 20
7.128137838631731
 10
1.381280750287639
 20
7.128137838631731
 10
1.384630904406602
 20
7.128137838631731
 10
1.388632100621558
 20
7.127717373944735
 10
1.392741803852512
 20
7.126998514963743
 10
1.392741803852512
 20
7.126998514963743
 10
1.385865171713588
 20
7.089278763527163
 10
1.385865171713588
 20
7.089278763527163
 97
        0
 92
        1
 93
        1
 72
     4
 94
        3
 73
     0
 74
     1
 95
       32
 96
       28
 40
0.0
 40
0.0
 40
0.0
 40
0.0
 40
1.0
 40
1.0
 40
1.0
 40
2.0
 40
2.0
 40
2.0
 40
3.0
 40
3.0
 40
3.0
 40
4.0
 40
4.0
 40
4.0
 40
5.0
 40
5.0
 40
5.0
 40
6.0
 40
6.0
 40
6.0
 40
7.0
 40
7.0
 40
7.0
 40
8.0
 40
8.0
 40
8.0
 40
9.0
 40
9.0
 40
9.0
 40
9.0
 10
1.439467637616992
 20
6.985003521152323
 10
1.438925102536998
 20
7.009566796899049
 10
1.442926298751954
 20
7.047815520038624
 10
1.44685967808191
 20
7.068364036193396
 10
1.44685967808191
 20
7.068364036193396
 10
1.4657127721117
 20
7.166481505410305
 10
1.4657127721117
 20
7.166481505410305
 10
1.449490973219881
 20
7.171906856210244
 10
1.423639176658168
 20
7.176884615569189
 10
1.399414985336438
 20
7.176884615569189
 10
1.302789487589512
 20
7.176884615569189
 10
1.263306497142951
 20
7.109949350074933
 10
1.263306497142951
 20
7.047639196137626
 10
1.263306497142951
 20
7.007016882023078
 10
1.287530688464682
 20
6.980907381298368
 10
1.321317060571306
 20
6.980907381298368
 10
1.341092464237086
 20
6.980907381298368
 10
1.364258712152829
 20
6.989615069332271
 10
1.380711088453646
 20
7.017528499197961
 10
1.380711088453646
 20
7.017528499197961
 10
1.381674088220635
 20
7.017528499197961
 10
1.381674088220635
 20
7.017528499197961
 10
1.381280750287639
 20
7.006596417336082
 10
1.380616144814647
 20
6.995799969244202
 10
1.379937975964654
 20
6.985003521152323
 10
1.379937975964654
 20
6.985003521152323
 10
1.439467637616992
 20
6.985003521152323
 10
1.439467637616992
 20
6.985003521152323
 97
        0
 75
     2
 76
     1
 98
        0
  0
SPLINE
  5
74
330
69
100
AcDbEntity
  8
LAYER_2
100
AcDbSpline
210
0.0
220
0.0
230
1.0
 70
    11
 71
     3
 72
    41
 73
    37
 74
     0
 42
0.0000000001
 43
0.0000000001
 40
0.0
 40
0.0
 40
0.0
 40
0.0
 40
1.0
 40
1.0
 40
1.0
 40
2.0
 40
2.0
 40
2.0
 40
3.0
 40
3.0
 40
3.0
 40
4.0
 40
4.0
 40
4.0
 40
5.0
 40
5.0
 40
5.0
 40
6.0
 40
6.0
 40
6.0
 40
7.0
 40
7.0
 40
7.0
 40
8.0
 40
8.0
 40
8.0
 40
9.0
 40
9.0
 40
9.0
 40
10.0
 40
10.0
 40
10.0
 40
11.0
 40
11.0
 40
11.0
 40
12.0
 40
12.0
 40
12.0
 40
12.0
 10
1.467014856303686
 20
6.985003521152323
 30
0.0
 10
1.467014856303686
 20
6.985003521152323
 30
0.0
 10
1.487441302065459
 20
7.092778114793124
 30
0.0
 10
1.487441302065459
 20
7.092778114793124
 30
0.0
 10
1.492948033127397
 20
7.122617544192792
 30
0.0
 10
1.495158863578373
 20
7.15705495839541
 30
0.0
 10
1.497071299735352
 20
7.172679968699236
 30
0.0
 10
1.497071299735352
 20
7.172679968699236
 30
0.0
 10
1.553088046744729
 20
7.172679968699236
 30
0.0
 10
1.553088046744729
 20
7.172679968699236
 30
0.0
 10
1.552314934255737
 20
7.160201661859374
 30
0.0
 10
1.551541821766746
 20
7.147709791642513
 30
0.0
 10
1.550429624852758
 20
7.135231484802652
 30
0.0
 10
1.550429624852758
 20
7.135231484802652
 30
0.0
 10
1.551650328782745
 20
7.135231484802652
 30
0.0
 10
1.551650328782745
 20
7.135231484802652
 30
0.0
 10
1.565295086044593
 20
7.159794760549379
 30
0.0
 10
1.586426827410358
 20
7.176884615569189
 30
0.0
 10
1.61233287748007
 20
7.176884615569189
 30
0.0
 10
1.616049242778029
 20
7.176884615569189
 30
0.0
 10
1.619575720797989
 20
7.17677610855319
 30
0.0
 10
1.62310219881795
 20
7.176328517112195
 30
0.0
 10
1.62310219881795
 20
7.176328517112195
 30
0.0
 10
1.610434004700091
 20
7.113421574586894
 30
0.0
 10
1.610434004700091
 20
7.113421574586894
 30
0.0
 10
1.607965470086119
 20
7.113516518225893
 30
0.0
 10
1.604818766622153
 20
7.113597898487892
 30
0.0
 10
1.602038274337184
 20
7.113597898487892
 30
0.0
 10
1.563843804705609
 20
7.113597898487892
 30
0.0
 10
1.550782272654754
 20
7.08325662413923
 30
0.0
 10
1.544421048841825
 20
7.049185421115609
 30
0.0
 10
1.544421048841825
 20
7.049185421115609
 30
0.0
 10
1.53230895318096
 20
6.985003521152323
 30
0.0
 10
1.53230895318096
 20
6.985003521152323
 30
0.0
 10
1.53230895318096
 20
6.985003521152323
 30
0.0
 10
1.467014856303686
 20
6.985003521152323
 30
0.0
 10
1.467014856303686
 20
6.985003521152323
 30
0.0
  0
HATCH
  5
75
330
69
100
AcDbEntity
  8
LAYER_2
 62
    18
100
AcDbHatch
 10
0.0
 20
0.0
 30
0.0
210
0.0
220
0.0
230
1.0
  2
SOLID
 70
     1
 71
     0
 91
        1
 92
        1
 93
        1
 72
     4
 94
        3
 73
     0
 74
     1
 95
       41
 96
       37
 40
0.0
 40
0.0
 40
0.0
 40
0.0
 40
1.0
 40
1.0
 40
1.0
 40
2.0
 40
2.0
 40
2.0
 40
3.0
 40
3.0
 40
3.0
 40
4.0
 40
4.0
 40
4.0
 40
5.0
 40
5.0
 40
5.0
 40
6.0
 40
6.0
 40
6.0
 40
7.0
 40
7.0
 40
7.0
 40
8.0
 40
8.0
 40
8.0
 40
9.0
 40
9.0
 40
9.0
 40
10.0
 40
10.0
 40
10.0
 40
11.0
 40
11.0
 40
11.0
 40
12.0
 40
12.0
 40
12.0
 40
12.0
 10
1.467014856303686
 20
6.985003521152323
 10
1.467014856303686
 20
6.985003521152323
 10
1.487441302065459
 20
7.092778114793124
 10
1.487441302065459
 20
7.092778114793124
 10
1.492948033127397
 20
7.122617544192792
 10
1.495158863578373
 20
7.15705495839541
 10
1.497071299735352
 20
7.172679968699236
 10
1.497071299735352
 20
7.172679968699236
 10
1.553088046744729
 20
7.172679968699236
 10
1.553088046744729
 20
7.172679968699236
 10
1.552314934255737
 20
7.160201661859374
 10
1.551541821766746
 20
7.147709791642513
 10
1.550429624852758
 20
7.135231484802652
 10
1.550429624852758
 20
7.135231484802652
 10
1.551650328782745
 20
7.135231484802652
 10
1.551650328782745
 20
7.135231484802652
 10
1.565295086044593
 20
7.159794760549379
 10
1.586426827410358
 20
7.176884615569189
 10
1.61233287748007
 20
7.176884615569189
 10
1.616049242778029
 20
7.176884615569189
 10
1.619575720797989
 20
7.17677610855319
 10
1.62310219881795
 20
7.176328517112195
 10
1.62310219881795
 20
7.176328517112195
 10
1.610434004700091
 20
7.113421574586894
 10
1.610434004700091
 20
7.113421574586894
 10
1.607965470086119
 20
7.113516518225893
 10
1.604818766622153
 20
7.113597898487892
 10
1.602038274337184
 20
7.113597898487892
 10
1.563843804705609
 20
7.113597898487892
 10
1.550782272654754
 20
7.08325662413923
 10
1.544421048841825
 20
7.049185421115609
 10
1.544421048841825
 20
7.049185421115609
 10
1.53230895318096
 20
6.985003521152323
 10
1.53230895318096
 20
6.985003521152323
 10
1.53230895318096
 20
6.985003521152323
 10
1.467014856303686
 20
6.985003521152323
 10
1.467014856303686
 20
6.985003521152323
 97
        0
 75
     2
 76
     1
 98
        0
  0
SPLINE
  5
76
330
69
100
AcDbEntity
  8
LAYER_2
100
AcDbSpline
210
0.0
220
0.0
230
1.0
 70
    11
 71
     3
 72
    41
 73
    37
 74
     0
 42
0.0000000001
 43
0.0000000001
 40
0.0
 40
0.0
 40
0.0
 40
0.0
 40
1.0
 40
1.0
 40
1.0
 40
2.0
 40
2.0
 40
2.0
 40
3.0
 40
3.0
 40
3.0
 40
4.0
 40
4.0
 40
4.0
 40
5.0
 40
5.0
 40
5.0
 40
6.0
 40
6.0
 40
6.0
 40
7.0
 40
7.0
 40
7.0
 40
8.0
 40
8.0
 40
8.0
 40
9.0
 40
9.0
 40
9.0
 40
10.0
 40
10.0
 40
10.0
 40
11.0
 40
11.0
 40
11.0
 40
12.0
 40
12.0
 40
12.0
 40
12.0
 10
1.610813779256087
 20
6.985003521152323
 30
0.0
 10
1.610813779256087
 20
6.985003521152323
 30
0.0
 10
1.63121309826386
 20
7.092778114793124
 30
0.0
 10
1.63121309826386
 20
7.092778114793124
 30
0.0
 10
1.636746956079798
 20
7.122617544192792
 30
0.0
 10
1.638917096399774
 20
7.15705495839541
 30
0.0
 10
1.640829532556753
 20
7.172679968699236
 30
0.0
 10
1.640829532556753
 20
7.172679968699236
 30
0.0
 10
1.69683271618913
 20
7.172679968699236
 30
0.0
 10
1.69683271618913
 20
7.172679968699236
 30
0.0
 10
1.696059603700139
 20
7.160201661859374
 30
0.0
 10
1.695313617965147
 20
7.147709791642513
 30
0.0
 10
1.69420142105116
 20
7.135231484802652
 30
0.0
 10
1.69420142105116
 20
7.135231484802652
 30
0.0
 10
1.695394998227146
 20
7.135231484802652
 30
0.0
 10
1.695394998227146
 20
7.135231484802652
 30
0.0
 10
1.709039755488994
 20
7.159794760549379
 30
0.0
 10
1.730185060231759
 20
7.176884615569189
 30
0.0
 10
1.756104673678471
 20
7.176884615569189
 30
0.0
 10
1.75982103897643
 20
7.176884615569189
 30
0.0
 10
1.763347516996391
 20
7.17677610855319
 30
0.0
 10
1.766873995016351
 20
7.176328517112195
 30
0.0
 10
1.766873995016351
 20
7.176328517112195
 30
0.0
 10
1.754178674144492
 20
7.113421574586894
 30
0.0
 10
1.754178674144492
 20
7.113421574586894
 30
0.0
 10
1.75172370290752
 20
7.113516518225893
 30
0.0
 10
1.748563436066555
 20
7.113597898487892
 30
0.0
 10
1.745810070535585
 20
7.113597898487892
 30
0.0
 10
1.70760203752701
 20
7.113597898487892
 30
0.0
 10
1.694567632230155
 20
7.08325662413923
 30
0.0
 10
1.688165718286227
 20
7.049185421115609
 30
0.0
 10
1.688165718286227
 20
7.049185421115609
 30
0.0
 10
1.676080749379361
 20
6.985003521152323
 30
0.0
 10
1.676080749379361
 20
6.985003521152323
 30
0.0
 10
1.676080749379361
 20
6.985003521152323
 30
0.0
 10
1.610813779256087
 20
6.985003521152323
 30
0.0
 10
1.610813779256087
 20
6.985003521152323
 30
0.0
  0
HATCH
  5
77
330
69
100
AcDbEntity
  8
LAYER_2
 62
    18
100
AcDbHatch
 10
0.0
 20
0.0
 30
0.0
210
0.0
220
0.0
230
1.0
  2
SOLID
 70
     1
 71
     0
 91
        1
 92
        1
 93
        1
 72
     4
 94
        3
 73
     0
 74
     1
 95
       41
 96
       37
 40
0.0
 40
0.0
 40
0.0
 40
0.0
 40
1.0
 40
1.0
 40
1.0
 40
2.0
 40
2.0
 40
2.0
 40
3.0
 40
3.0
 40
3.0
 40
4.0
 40
4.0
 40
4.0
 40
5.0
 40
5.0
 40
5.0
 40
6.0
 40
6.0
 40
6.0
 40
7.0
 40
7.0
 40
7.0
 40
8.0
 40
8.0
 40
8.0
 40
9.0
 40
9.0
 40
9.0
 40
10.0
 40
10.0
 40
10.0
 40
11.0
 40
11.0
 40
11.0
 40
12.0
 40
12.0
 40
12.0
 40
12.0
 10
1.610813779256087
 20
6.985003521152323
 10
1.610813779256087
 20
6.985003521152323
 10
1.63121309826386
 20
7.092778114793124
 10
1.63121309826386
 20
7.092778114793124
 10
1.636746956079798
 20
7.122617544192792
 10
1.638917096399774
 20
7.15705495839541
 10
1.640829532556753
 20
7.172679968699236
 10
1.640829532556753
 20
7.172679968699236
 10
1.69683271618913
 20
7.172679968699236
 10
1.69683271618913
 20
7.172679968699236
 10
1.696059603700139
 20
7.160201661859374
 10
1.695313617965147
 20
7.147709791642513
 10
1.69420142105116
 20
7.135231484802652
 10
1.69420142105116
 20
7.135231484802652
 10
1.695394998227146
 20
7.135231484802652
 10
1.695394998227146
 20
7.135231484802652
 10
1.709039755488994
 20
7.159794760549379
 10
1.730185060231759
 20
7.176884615569189
 10
1.756104673678471
 20
7.176884615569189
 10
1.75982103897643
 20
7.176884615569189
 10
1.763347516996391
 20
7.17677610855319
 10
1.766873995016351
 20
7.176328517112195
 10
1.766873995016351
 20
7.176328517112195
 10
1.754178674144492
 20
7.113421574586894
 10
1.754178674144492
 20
7.113421574586894
 10
1.75172370290752
 20
7.113516518225893
 10
1.748563436066555
 20
7.113597898487892
 10
1.745810070535585
 20
7.113597898487892
 10
1.70760203752701
 20
7.113597898487892
 10
1.694567632230155
 20
7.08325662413923
 10
1.688165718286227
 20
7.049185421115609
 10
1.688165718286227
 20
7.049185421115609
 10
1.676080749379361
 20
6.985003521152323
 10
1.676080749379361
 20
6.985003521152323
 10
1.676080749379361
 20
6.985003521152323
 10
1.610813779256087
 20
6.985003521152323
 10
1.610813779256087
 20
6.985003521152323
 97
        0
 75
     2
 76
     1
 98
        0
  0
POLYLINE
  5
78
330
69
100
AcDbEntity
  8
LAYER_2
100
AcDb2dPolyline
 66
     1
 10
0.0
 20
0.0
 30
0.0
  0
VERTEX
  5
79
330
78
100
AcDbEntity
  8
LAYER_2
100
AcDbVertex
100
AcDb2dVertex
 10
1.754504195192489
 20
6.985003521152323
 30
0.0
  0
VERTEX
  5
7A
330
78
100
AcDbEntity
  8
LAYER_2
100
AcDbVertex
100
AcDb2dVertex
 10
1.790067369686093
 20
7.172679968699236
 30
0.0
  0
VERTEX
  5
7B
330
78
100
AcDbEntity
  8
LAYER_2
100
AcDbVertex
100
AcDb2dVertex
 10
1.855035945515371
 20
7.172679968699236
 30
0.0
  0
VERTEX
  5
7C
330
78
100
AcDbEntity
  8
LAYER_2
100
AcDbVertex
100
AcDb2dVertex
 10
1.819513461152766
 20
6.985003521152323
 30
0.0
  0
VERTEX
  5
7D
330
78
100
AcDbEntity
  8
LAYER_2
100
AcDbVertex
100
AcDb2dVertex
 10
1.754504195192489
 20
6.985003521152323
 30
0.0
  0
SEQEND
  5
7E
330
78
100
AcDbEntity
  8
LAYER_2
  0
SPLINE
  5
7F
330
69
100
AcDbEntity
  8
LAYER_2
100
AcDbSpline
210
0.0
220
0.0
230
1.0
 70
    11
 71
     3
 72
    20
 73
    16
 74
     0
 42
0.0000000001
 43
0.0000000001
 40
0.0
 40
0.0
 40
0.0
 40
0.0
 40
1.0
 40
1.0
 40
1.0
 40
2.0
 40
2.0
 40
2.0
 40
3.0
 40
3.0
 40
3.0
 40
4.0
 40
4.0
 40
4.0
 40
5.0
 40
5.0
 40
5.0
 40
5.0
 10
1.828845064528662
 20
7.19290296380601
 30
0.0
 10
1.810670139348864
 20
7.19290296380601
 30
0.0
 10
1.796849058186018
 20
7.205435524153871
 30
0.0
 10
1.796849058186018
 20
7.225061730672653
 30
0.0
 10
1.796849058186018
 20
7.247753260393401
 30
0.0
 10
1.814861222841818
 20
7.262917115879232
 30
0.0
 10
1.835491119258588
 20
7.262917115879232
 30
0.0
 10
1.854954565253372
 20
7.262917115879232
 30
0.0
 10
1.868897716809217
 20
7.250628696317369
 30
0.0
 10
1.868897716809217
 20
7.230663405373591
 30
0.0
 10
1.868897716809217
 20
7.20647990418286
 30
0.0
 10
1.850343017073423
 20
7.19290296380601
 30
0.0
 10
1.829211275707658
 20
7.19290296380601
 30
0.0
 10
1.829211275707658
 20
7.19290296380601
 30
0.0
 10
1.828845064528662
 20
7.19290296380601
 30
0.0
 10
1.828845064528662
 20
7.19290296380601
 30
0.0
  0
HATCH
  5
80
330
69
100
AcDbEntity
  8
LAYER_2
 62
    18
100
AcDbHatch
 10
0.0
 20
0.0
 30
0.0
210
0.0
220
0.0
230
1.0
  2
SOLID
 70
     1
 71
     0
 91
        2
 92
        1
 93
        4
 72
     1
 10
1.754504195192489
 20
6.985003521152323
 11
1.790067369686093
 21
7.172679968699236
 72
     1
 10
1.790067369686093
 20
7.172679968699236
 11
1.855035945515371
 21
7.172679968699236
 72
     1
 10
1.855035945515371
 20
7.172679968699236
 11
1.819513461152766
 21
6.985003521152323
 72
     1
 10
1.819513461152766
 20
6.985003521152323
 11
1.754504195192489
 21
6.985003521152323
 97
        0
 92
        1
 93
        1
 72
     4
 94
        3
 73
     0
 74
     1
 95
       20
 96
       16
 40
0.0
 40
0.0
 40
0.0
 40
0.0
 40
1.0
 40
1.0
 40
1.0
 40
2.0
 40
2.0
 40
2.0
 40
3.0
 40
3.0
 40
3.0
 40
4.0
 40
4.0
 40
4.0
 40
5.0
 40
5.0
 40
5.0
 40
5.0
 10
1.828845064528662
 20
7.19290296380601
 10
1.810670139348864
 20
7.19290296380601
 10
1.796849058186018
 20
7.205435524153871
 10
1.796849058186018
 20
7.225061730672653
 10
1.796849058186018
 20
7.247753260393401
 10
1.814861222841818
 20
7.262917115879232
 10
1.835491119258588
 20
7.262917115879232
 10
1.854954565253372
 20
7.262917115879232
 10
1.868897716809217
 20
7.250628696317369
 10
1.868897716809217
 20
7.230663405373591
 10
1.868897716809217
 20
7.20647990418286
 10
1.850343017073423
 20
7.19290296380601
 10
1.829211275707658
 20
7.19290296380601
 10
1.829211275707658
 20
7.19290296380601
 10
1.828845064528662
 20
7.19290296380601
 10
1.828845064528662
 20
7.19290296380601
 97
        0
 75
     2
 76
     1
 98
        0
  0
SPLINE
  5
81
330
69
100
AcDbEntity
  8
LAYER_2
100
AcDbSpline
210
0.0
220
0.0
230
1.0
 70
    11
 71
     3
 72
    17
 73
    13
 74
     0
 42
0.0000000001
 43
0.0000000001
 40
0.0
 40
0.0
 40
0.0
 40
0.0
 40
1.0
 40
1.0
 40
1.0
 40
2.0
 40
2.0
 40
2.0
 40
3.0
 40
3.0
 40
3.0
 40
4.0
 40
4.0
 40
4.0
 40
4.0
 10
1.984728956387929
 20
7.117287137031852
 30
0.0
 10
1.984728956387929
 20
7.105310675140985
 30
0.0
 10
1.970785804832084
 20
7.099695437063047
 30
0.0
 10
1.931045110222526
 20
7.100075211619043
 30
0.0
 10
1.932998236510504
 20
7.112241560787908
 30
0.0
 10
1.944364346436378
 20
7.129738317117713
 30
0.0
 10
1.967910368908116
 20
7.129738317117713
 30
0.0
 10
1.978611873360997
 20
7.129738317117713
 30
0.0
 10
1.984728956387929
 20
7.124028135400777
 30
0.0
 10
1.984728956387929
 20
7.117653348210847
 30
0.0
 10
1.984728956387929
 20
7.117653348210847
 30
0.0
 10
1.984728956387929
 20
7.117287137031852
 30
0.0
 10
1.984728956387929
 20
7.117287137031852
 30
0.0
  0
SPLINE
  5
82
330
69
100
AcDbEntity
  8
LAYER_2
100
AcDbSpline
210
0.0
220
0.0
230
1.0
 70
    11
 71
     3
 72
    32
 73
    28
 74
     0
 42
0.0000000001
 43
0.0000000001
 40
0.0
 40
0.0
 40
0.0
 40
0.0
 40
1.0
 40
1.0
 40
1.0
 40
2.0
 40
2.0
 40
2.0
 40
3.0
 40
3.0
 40
3.0
 40
4.0
 40
4.0
 40
4.0
 40
5.0
 40
5.0
 40
5.0
 40
6.0
 40
6.0
 40
6.0
 40
7.0
 40
7.0
 40
7.0
 40
8.0
 40
8.0
 40
8.0
 40
9.0
 40
9.0
 40
9.0
 40
9.0
 10
2.018881539673549
 20
7.042498676254684
 30
0.0
 10
2.00257836051973
 20
7.034808241495769
 30
0.0
 10
1.98462044937193
 20
7.03110543957481
 30
0.0
 10
1.965319763901144
 20
7.03110543957481
 30
0.0
 10
1.950494992840309
 20
7.03110543957481
 30
0.0
 10
1.939033939275437
 20
7.034536973955772
 30
0.0
 10
1.931845349465517
 20
7.040762563998703
 30
0.0
 10
1.928142547544558
 20
7.044180535002664
 30
0.0
 10
1.925809646700584
 20
7.048832773313613
 30
0.0
 10
1.924968717326593
 20
7.052983166675567
 30
0.0
 10
2.002659740781729
 20
7.050704519339592
 30
0.0
 10
2.045397941708254
 20
7.070100148449376
 30
0.0
 10
2.045397941708254
 20
7.116975179360855
 30
0.0
 10
2.045302998069255
 20
7.155332409516428
 30
0.0
 10
2.014785399819595
 20
7.17683036206119
 30
0.0
 10
1.975668620552029
 20
7.17683036206119
 30
0.0
 10
1.904637215203819
 20
7.17683036206119
 30
0.0
 10
1.863418112501278
 20
7.119063939418832
 30
0.0
 10
1.863418112501278
 20
7.061853615233468
 30
0.0
 10
1.863418112501278
 20
7.009797374308047
 30
0.0
 10
1.893474555932943
 20
6.980907381298368
 30
0.0
 10
1.948786007338328
 20
6.980907381298368
 30
0.0
 10
1.967910368908116
 20
6.980907381298368
 30
0.0
 10
1.997342896997788
 20
6.983403042666341
 30
0.0
 10
2.02240801769351
 20
6.995759279113203
 30
0.0
 10
2.02240801769351
 20
6.995759279113203
 30
0.0
 10
2.018881539673549
 20
7.042498676254684
 30
0.0
 10
2.018881539673549
 20
7.042498676254684
 30
0.0
  0
HATCH
  5
83
330
69
100
AcDbEntity
  8
LAYER_2
 62
    18
100
AcDbHatch
 10
0.0
 20
0.0
 30
0.0
210
0.0
220
0.0
230
1.0
  2
SOLID
 70
     1
 71
     0
 91
        2
 92
        1
 93
        1
 72
     4
 94
        3
 73
     0
 74
     1
 95
       17
 96
       13
 40
0.0
 40
0.0
 40
0.0
 40
0.0
 40
1.0
 40
1.0
 40
1.0
 40
2.0
 40
2.0
 40
2.0
 40
3.0
 40
3.0
 40
3.0
 40
4.0
 40
4.0
 40
4.0
 40
4.0
 10
1.984728956387929
 20
7.117287137031852
 10
1.984728956387929
 20
7.105310675140985
 10
1.970785804832084
 20
7.099695437063047
 10
1.931045110222526
 20
7.100075211619043
 10
1.932998236510504
 20
7.112241560787908
 10
1.944364346436378
 20
7.129738317117713
 10
1.967910368908116
 20
7.129738317117713
 10
1.978611873360997
 20
7.129738317117713
 10
1.984728956387929
 20
7.124028135400777
 10
1.984728956387929
 20
7.117653348210847
 10
1.984728956387929
 20
7.117653348210847
 10
1.984728956387929
 20
7.117287137031852
 10
1.984728956387929
 20
7.117287137031852
 97
        0
 92
        1
 93
        1
 72
     4
 94
        3
 73
     0
 74
     1
 95
       32
 96
       28
 40
0.0
 40
0.0
 40
0.0
 40
0.0
 40
1.0
 40
1.0
 40
1.0
 40
2.0
 40
2.0
 40
2.0
 40
3.0
 40
3.0
 40
3.0
 40
4.0
 40
4.0
 40
4.0
 40
5.0
 40
5.0
 40
5.0
 40
6.0
 40
6.0
 40
6.0
 40
7.0
 40
7.0
 40
7.0
 40
8.0
 40
8.0
 40
8.0
 40
9.0
 40
9.0
 40
9.0
 40
9.0
 10
2.018881539673549
 20
7.042498676254684
 10
2.00257836051973
 20
7.034808241495769
 10
1.98462044937193
 20
7.03110543957481
 10
1.965319763901144
 20
7.03110543957481
 10
1.950494992840309
 20
7.03110543957481
 10
1.939033939275437
 20
7.034536973955772
 10
1.931845349465517
 20
7.040762563998703
 10
1.928142547544558
 20
7.044180535002664
 10
1.925809646700584
 20
7.048832773313613
 10
1.924968717326593
 20
7.052983166675567
 10
2.002659740781729
 20
7.050704519339592
 10
2.045397941708254
 20
7.070100148449376
 10
2.045397941708254
 20
7.116975179360855
 10
2.045302998069255
 20
7.155332409516428
 10
2.014785399819595
 20
7.17683036206119
 10
1.975668620552029
 20
7.17683036206119
 10
1.904637215203819
 20
7.17683036206119
 10
1.863418112501278
 20
7.119063939418832
 10
1.863418112501278
 20
7.061853615233468
 10
1.863418112501278
 20
7.009797374308047
 10
1.893474555932943
 20
6.980907381298368
 10
1.948786007338328
 20
6.980907381298368
 10
1.967910368908116
 20
6.980907381298368
 10
1.997342896997788
 20
6.983403042666341
 10
2.02240801769351
 20
6.995759279113203
 10
2.02240801769351
 20
6.995759279113203
 10
2.018881539673549
 20
7.042498676254684
 10
2.018881539673549
 20
7.042498676254684
 97
        0
 75
     2
 76
     1
 98
        0
  0
SPLINE
  5
84
330
69
100
AcDbEntity
  8
LAYER_2
100
AcDbSpline
210
0.0
220
0.0
230
1.0
 70
    11
 71
     3
 72
    41
 73
    37
 74
     0
 42
0.0000000001
 43
0.0000000001
 40
0.0
 40
0.0
 40
0.0
 40
0.0
 40
1.0
 40
1.0
 40
1.0
 40
2.0
 40
2.0
 40
2.0
 40
3.0
 40
3.0
 40
3.0
 40
4.0
 40
4.0
 40
4.0
 40
5.0
 40
5.0
 40
5.0
 40
6.0
 40
6.0
 40
6.0
 40
7.0
 40
7.0
 40
7.0
 40
8.0
 40
8.0
 40
8.0
 40
9.0
 40
9.0
 40
9.0
 40
10.0
 40
10.0
 40
10.0
 40
11.0
 40
11.0
 40
11.0
 40
12.0
 40
12.0
 40
12.0
 40
12.0
 10
2.049534771693208
 20
6.985003521152323
 30
0.0
 10
2.049534771693208
 20
6.985003521152323
 30
0.0
 10
2.069906963946981
 20
7.092778114793124
 30
0.0
 10
2.069906963946981
 20
7.092778114793124
 30
0.0
 10
2.07544082176292
 20
7.122617544192792
 30
0.0
 10
2.077638088836895
 20
7.15705495839541
 30
0.0
 10
2.079509834862875
 20
7.172679968699236
 30
0.0
 10
2.079509834862875
 20
7.172679968699236
 30
0.0
 10
2.135526581872252
 20
7.172679968699236
 30
0.0
 10
2.135526581872252
 20
7.172679968699236
 30
0.0
 10
2.13480772289126
 20
7.160201661859374
 30
0.0
 10
2.134034610402268
 20
7.147709791642513
 30
0.0
 10
2.132895286734281
 20
7.135231484802652
 30
0.0
 10
2.132895286734281
 20
7.135231484802652
 30
0.0
 10
2.134115990664267
 20
7.135231484802652
 30
0.0
 10
2.134115990664267
 20
7.135231484802652
 30
0.0
 10
2.147747184549116
 20
7.159794760549379
 30
0.0
 10
2.168892489291881
 20
7.176884615569189
 30
0.0
 10
2.194798539361593
 20
7.176884615569189
 30
0.0
 10
2.198528468036551
 20
7.176884615569189
 30
0.0
 10
2.202041382679512
 20
7.17677610855319
 30
0.0
 10
2.205594987453472
 20
7.176328517112195
 30
0.0
 10
2.205594987453472
 20
7.176328517112195
 30
0.0
 10
2.192886103204614
 20
7.113421574586894
 30
0.0
 10
2.192886103204614
 20
7.113421574586894
 30
0.0
 10
2.190417568590641
 20
7.113516518225893
 30
0.0
 10
2.187284428503676
 20
7.113597898487892
 30
0.0
 10
2.184517499595707
 20
7.113597898487892
 30
0.0
 10
2.146350156718131
 20
7.113597898487892
 30
0.0
 10
2.133247934536277
 20
7.08325662413923
 30
0.0
 10
2.126900274100348
 20
7.049185421115609
 30
0.0
 10
2.126900274100348
 20
7.049185421115609
 30
0.0
 10
2.114801741816482
 20
6.985003521152323
 30
0.0
 10
2.114801741816482
 20
6.985003521152323
 30
0.0
 10
2.114801741816482
 20
6.985003521152323
 30
0.0
 10
2.049534771693208
 20
6.985003521152323
 30
0.0
 10
2.049534771693208
 20
6.985003521152323
 30
0.0
  0
HATCH
  5
85
330
69
100
AcDbEntity
  8
LAYER_2
 62
    18
100
AcDbHatch
 10
0.0
 20
0.0
 30
0.0
210
0.0
220
0.0
230
1.0
  2
SOLID
 70
     1
 71
     0
 91
        1
 92
        1
 93
        1
 72
     4
 94
        3
 73
     0
 74
     1
 95
       41
 96
       37
 40
0.0
 40
0.0
 40
0.0
 40
0.0
 40
1.0
 40
1.0
 40
1.0
 40
2.0
 40
2.0
 40
2.0
 40
3.0
 40
3.0
 40
3.0
 40
4.0
 40
4.0
 40
4.0
 40
5.0
 40
5.0
 40
5.0
 40
6.0
 40
6.0
 40
6.0
 40
7.0
 40
7.0
 40
7.0
 40
8.0
 40
8.0
 40
8.0
 40
9.0
 40
9.0
 40
9.0
 40
10.0
 40
10.0
 40
10.0
 40
11.0
 40
11.0
 40
11.0
 40
12.0
 40
12.0
 40
12.0
 40
12.0
 10
2.049534771693208
 20
6.985003521152323
 10
2.049534771693208
 20
6.985003521152323
 10
2.069906963946981
 20
7.092778114793124
 10
2.069906963946981
 20
7.092778114793124
 10
2.07544082176292
 20
7.122617544192792
 10
2.077638088836895
 20
7.15705495839541
 10
2.079509834862875
 20
7.172679968699236
 10
2.079509834862875
 20
7.172679968699236
 10
2.135526581872252
 20
7.172679968699236
 10
2.135526581872252
 20
7.172679968699236
 10
2.13480772289126
 20
7.160201661859374
 10
2.134034610402268
 20
7.147709791642513
 10
2.132895286734281
 20
7.135231484802652
 10
2.132895286734281
 20
7.135231484802652
 10
2.134115990664267
 20
7.135231484802652
 10
2.134115990664267
 20
7.135231484802652
 10
2.147747184549116
 20
7.159794760549379
 10
2.168892489291881
 20
7.176884615569189
 10
2.194798539361593
 20
7.176884615569189
 10
2.198528468036551
 20
7.176884615569189
 10
2.202041382679512
 20
7.17677610855319
 10
2.205594987453472
 20
7.176328517112195
 10
2.205594987453472
 20
7.176328517112195
 10
2.192886103204614
 20
7.113421574586894
 10
2.192886103204614
 20
7.113421574586894
 10
2.190417568590641
 20
7.113516518225893
 10
2.187284428503676
 20
7.113597898487892
 10
2.184517499595707
 20
7.113597898487892
 10
2.146350156718131
 20
7.113597898487892
 10
2.133247934536277
 20
7.08325662413923
 10
2.126900274100348
 20
7.049185421115609
 10
2.126900274100348
 20
7.049185421115609
 10
2.114801741816482
 20
6.985003521152323
 10
2.114801741816482
 20
6.985003521152323
 10
2.114801741816482
 20
6.985003521152323
 10
2.049534771693208
 20
6.985003521152323
 10
2.049534771693208
 20
6.985003521152323
 97
        0
 75
     2
 76
     1
 98
        0
  0
ENDBLK
  5
6C
330
69
100
AcDbEntity
  8
0
100
AcDbBlockEnd
  0
BLOCK
  5
A4
330
A2
100
AcDbEntity
  8
0
100
AcDbBlockBegin
  2
BLOCK_7
 70
     0
 10
0.0
 20
0.0
 30
0.0
  3
BLOCK_7
  1

  0
POLYLINE
  5
A6
330
A2
100
AcDbEntity
  8
LAYER_2
 62
     7
100
AcDb2dPolyline
 66
     1
 10
0.0
 20
0.0
 30
0.0
  0
VERTEX
  5
A7
330
A6
100
AcDbEntity
  8
LAYER_2
 62
     7
100
AcDbVertex
100
AcDb2dVertex
 10
6.174618872165334
 20
2.736112915425573
 30
0.0
  0
VERTEX
  5
A8
330
A6
100
AcDbEntity
  8
LAYER_2
 62
     7
100
AcDbVertex
100
AcDb2dVertex
 10
6.373851316916119
 20
1.499621214611323
 30
0.0
  0
SEQEND
  5
A9
330
A6
100
AcDbEntity
  8
LAYER_2
  0
ENDBLK
  5
A5
330
A2
100
AcDbEntity
  8
0
100
AcDbBlockEnd
  0
BLOCK
  5
AC
330
AA
100
AcDbEntity
  8
0
100
AcDbBlockBegin
  2
BLOCK_8
 70
     0
 10
0.0
 20
0.0
 30
0.0
  3
BLOCK_8
  1

  0
POLYLINE
  5
AE
330
AA
100
AcDbEntity
  8
LAYER_2
 62
     7
100
AcDb2dPolyline
 66
     1
 10
0.0
 20
0.0
 30
0.0
  0
VERTEX
  5
AF
330
AE
100
AcDbEntity
  8
LAYER_2
 62
     7
100
AcDbVertex
100
AcDb2dVertex
 10
6.721494232799253
 20
2.736112915425573
 30
0.0
  0
VERTEX
  5
B0
330
AE
100
AcDbEntity
  8
LAYER_2
 62
     7
100
AcDbVertex
100
AcDb2dVertex
 10
6.522248224671468
 20
1.499553397726324
 30
0.0
  0
SEQEND
  5
B1
330
AE
100
AcDbEntity
  8
LAYER_2
  0
ENDBLK
  5
AD
330
AA
100
AcDbEntity
  8
0
100
AcDbBlockEnd
  0
BLOCK
  5
B5
330
B3
100
AcDbEntity
  8
0
100
AcDbBlockBegin
  2
BLOCK_9
 70
     0
 10
0.0
 20
0.0
 30
0.0
  3
BLOCK_9
  1

  0
POLYLINE
  5
B7
330
B3
100
AcDbEntity
  8
LAYER_2
100
AcDb2dPolyline
 66
     1
 10
0.0
 20
0.0
 30
0.0
  0
VERTEX
  5
B8
330
B7
100
AcDbEntity
  8
LAYER_2
100
AcDbVertex
100
AcDb2dVertex
 10
5.850155767574943
 20
2.823474626681601
 30
0.0
  0
VERTEX
  5
B9
330
B7
100
AcDbEntity
  8
LAYER_2
100
AcDbVertex
100
AcDb2dVertex
 10
5.853424541431907
 20
2.878921711856985
 30
0.0
  0
VERTEX
  5
BA
330
B7
100
AcDbEntity
  8
LAYER_2
100
AcDbVertex
100
AcDb2dVertex
 10
5.680545738191829
 20
2.81366830511071
 30
0.0
  0
VERTEX
  5
BB
330
B7
100
AcDbEntity
  8
LAYER_2
100
AcDbVertex
100
AcDb2dVertex
 10
5.680545738191829
 20
2.807157884150783
 30
0.0
  0
VERTEX
  5
BC
330
B7
100
AcDbEntity
  8
LAYER_2
100
AcDbVertex
100
AcDb2dVertex
 10
5.853424541431907
 20
2.741918040781508
 30
0.0
  0
VERTEX
  5
BD
330
B7
100
AcDbEntity
  8
LAYER_2
100
AcDbVertex
100
AcDb2dVertex
 10
5.850155767574943
 20
2.797378689333891
 30
0.0
  0
VERTEX
  5
BE
330
B7
100
AcDbEntity
  8
LAYER_2
100
AcDbVertex
100
AcDb2dVertex
 10
5.850155767574943
 20
2.823474626681601
 30
0.0
  0
SEQEND
  5
BF
330
B7
100
AcDbEntity
  8
LAYER_2
  0
HATCH
  5
C0
330
B3
100
AcDbEntity
  8
LAYER_2
 62
     7
100
AcDbHatch
 10
0.0
 20
0.0
 30
0.0
210
0.0
220
0.0
230
1.0
  2
SOLID
 70
     1
 71
     0
 91
        1
 92
        1
 93
        6
 72
     1
 10
5.850155767574943
 20
2.823474626681601
 11
5.853424541431907
 21
2.878921711856985
 72
     1
 10
5.853424541431907
 20
2.878921711856985
 11
5.680545738191829
 21
2.81366830511071
 72
     1
 10
5.680545738191829
 20
2.81366830511071
 11
5.680545738191829
 21
2.807157884150783
 72
     1
 10
5.680545738191829
 20
2.807157884150783
 11
5.853424541431907
 21
2.741918040781508
 72
     1
 10
5.853424541431907
 20
2.741918040781508
 11
5.850155767574943
 21
2.797378689333891
 72
     1
 10
5.850155767574943
 20
2.797378689333891
 11
5.850155767574943
 21
2.823474626681601
 97
        0
 75
     2
 76
     1
 98
        0
  0
ENDBLK
  5
B6
330
B3
100
AcDbEntity
  8
0
100
AcDbBlockEnd
  0
BLOCK
  5
C3
330
C1
100
AcDbEntity
  8
0
100
AcDbBlockBegin
  2
BLOCK_10
 70
     0
 10
0.0
 20
0.0
 30
0.0
  3
BLOCK_10
  1

  0
POLYLINE
  5
C5
330
C1
100
AcDbEntity
  8
LAYER_2
100
AcDb2dPolyline
 66
     1
 10
0.0
 20
0.0
 30
0.0
  0
VERTEX
  5
C6
330
C5
100
AcDbEntity
  8
LAYER_2
100
AcDbVertex
100
AcDb2dVertex
 10
7.042200281960686
 20
2.794123478853928
 30
0.0
  0
VERTEX
  5
C7
330
C5
100
AcDbEntity
  8
LAYER_2
100
AcDbVertex
100
AcDb2dVertex
 10
7.038945071480723
 20
2.738662830301545
 30
0.0
  0
VERTEX
  5
C8
330
C5
100
AcDbEntity
  8
LAYER_2
100
AcDbVertex
100
AcDb2dVertex
 10
7.2118103113438
 20
2.803902673670819
 30
0.0
  0
VERTEX
  5
C9
330
C5
100
AcDbEntity
  8
LAYER_2
100
AcDbVertex
100
AcDb2dVertex
 10
7.2118103113438
 20
2.810413094630746
 30
0.0
  0
VERTEX
  5
CA
330
C5
100
AcDbEntity
  8
LAYER_2
100
AcDbVertex
100
AcDb2dVertex
 10
7.038945071480723
 20
2.875680064754021
 30
0.0
  0
VERTEX
  5
CB
330
C5
100
AcDbEntity
  8
LAYER_2
100
AcDbVertex
100
AcDb2dVertex
 10
7.042200281960686
 20
2.820219416201637
 30
0.0
  0
VERTEX
  5
CC
330
C5
100
AcDbEntity
  8
LAYER_2
100
AcDbVertex
100
AcDb2dVertex
 10
7.042200281960686
 20
2.794123478853928
 30
0.0
  0
SEQEND
  5
CD
330
C5
100
AcDbEntity
  8
LAYER_2
  0
HATCH
  5
CE
330
C1
100
AcDbEntity
  8
LAYER_2
 62
     7
100
AcDbHatch
 10
0.0
 20
0.0
 30
0.0
210
0.0
220
0.0
230
1.0
  2
SOLID
 70
     1
 71
     0
 91
        1
 92
        1
 93
        6
 72
     1
 10
7.042200281960686
 20
2.794123478853928
 11
7.038945071480723
 21
2.738662830301545
 72
     1
 10
7.038945071480723
 20
2.738662830301545
 11
7.2118103113438
 21
2.803902673670819
 72
     1
 10
7.2118103113438
 20
2.803902673670819
 11
7.2118103113438
 21
2.810413094630746
 72
     1
 10
7.2118103113438
 20
2.810413094630746
 11
7.038945071480723
 21
2.875680064754021
 72
     1
 10
7.038945071480723
 20
2.875680064754021
 11
7.042200281960686
 21
2.820219416201637
 72
     1
 10
7.042200281960686
 20
2.820219416201637
 11
7.042200281960686
 21
2.794123478853928
 97
        0
 75
     2
 76
     1
 98
        0
  0
ENDBLK
  5
C4
330
C1
100
AcDbEntity
  8
0
100
AcDbBlockEnd
  0
BLOCK
  5
FD
330
FB
100
AcDbEntity
  8
0
100
AcDbBlockBegin
  2
BLOCK_11
 70
     0
 10
0.0
 20
0.0
 30
0.0
  3
BLOCK_11
  1

  0
SPLINE
  5
FF
330
FB
100
AcDbEntity
  8
LAYER_2
100
AcDbSpline
210
0.0
220
0.0
230
1.0
 70
    11
 71
     3
 72
   101
 73
    97
 74
     0
 42
0.0000000001
 43
0.0000000001
 40
0.0
 40
0.0
 40
0.0
 40
0.0
 40
1.0
 40
1.0
 40
1.0
 40
2.0
 40
2.0
 40
2.0
 40
3.0
 40
3.0
 40
3.0
 40
4.0
 40
4.0
 40
4.0
 40
5.0
 40
5.0
 40
5.0
 40
6.0
 40
6.0
 40
6.0
 40
7.0
 40
7.0
 40
7.0
 40
8.0
 40
8.0
 40
8.0
 40
9.0
 40
9.0
 40
9.0
 40
10.0
 40
10.0
 40
10.0
 40
11.0
 40
11.0
 40
11.0
 40
12.0
 40
12.0
 40
12.0
 40
13.0
 40
13.0
 40
13.0
 40
14.0
 40
14.0
 40
14.0
 40
15.0
 40
15.0
 40
15.0
 40
16.0
 40
16.0
 40
16.0
 40
17.0
 40
17.0
 40
17.0
 40
18.0
 40
18.0
 40
18.0
 40
19.0
 40
19.0
 40
19.0
 40
20.0
 40
20.0
 40
20.0
 40
21.0
 40
21.0
 40
21.0
 40
22.0
 40
22.0
 40
22.0
 40
23.0
 40
23.0
 40
23.0
 40
24.0
 40
24.0
 40
24.0
 40
25.0
 40
25.0
 40
25.0
 40
26.0
 40
26.0
 40
26.0
 40
27.0
 40
27.0
 40
27.0
 40
28.0
 40
28.0
 40
28.0
 40
29.0
 40
29.0
 40
29.0
 40
30.0
 40
30.0
 40
30.0
 40
31.0
 40
31.0
 40
31.0
 40
32.0
 40
32.0
 40
32.0
 40
32.0
 10
4.650610705708282
 20
3.118437386297321
 30
0.0
 10
4.653269127600253
 20
3.126304144957234
 30
0.0
 10
4.657270323815208
 20
3.132733185655162
 30
0.0
 10
4.662614294353149
 20
3.137724508391107
 30
0.0
 10
4.66794470151409
 20
3.142702267750051
 30
0.0
 10
4.674645009752015
 20
3.145916788099016
 30
0.0
 10
4.682742345820925
 20
3.147327379307
 30
0.0
 10
4.690812555135835
 20
3.148737970514984
 30
0.0
 10
4.700117031757732
 20
3.148046238287992
 30
0.0
 10
4.710615085555615
 20
3.145238619249023
 30
0.0
 10
4.718617477985526
 20
3.143082042306047
 30
0.0
 10
4.726240095859441
 20
3.139799705072083
 30
0.0
 10
4.733482939177361
 20
3.135364480793133
 30
0.0
 10
4.74073934587228
 20
3.130915693137182
 30
0.0
 10
4.747114133062209
 20
3.125612412730241
 30
0.0
 10
4.752607300747148
 20
3.119481766326309
 30
0.0
 10
4.758114031809087
 20
3.113337556545378
 30
0.0
 10
4.762481439203039
 20
3.106420234275455
 30
0.0
 10
4.765736649683002
 20
3.09871623613954
 30
0.0
 10
4.768991860162966
 20
3.091012238003626
 30
0.0
 10
4.770605902025948
 20
3.082914901934716
 30
0.0
 10
4.770605902025948
 20
3.074410664555811
 30
0.0
 10
4.770605902025948
 20
3.065567342751909
 30
0.0
 10
4.769195310817964
 20
3.058365189564989
 30
0.0
 10
4.766360565024995
 20
3.052804204995051
 30
0.0
 10
4.763525819232027
 20
3.047216093671113
 30
0.0
 10
4.759768763803068
 20
3.042604545491165
 30
0.0
 10
4.75511652549212
 20
3.038928870324205
 30
0.0
 10
4.750437160427173
 20
3.035280321911246
 30
0.0
 10
4.745147443397231
 20
3.03222856208628
 30
0.0
 10
4.739233811025297
 20
3.029814280980307
 30
0.0
 10
4.733320178653362
 20
3.027399999874334
 30
0.0
 10
4.727365856150429
 20
3.02503997227636
 30
0.0
 10
4.721357280139496
 20
3.022734198186385
 30
0.0
 10
4.715362267505562
 20
3.020428424096411
 30
0.0
 10
4.709530015395627
 20
3.01778356558144
 30
0.0
 10
4.70386052380969
 20
3.014799622641473
 30
0.0
 10
4.698191032223753
 20
3.011815679701507
 30
0.0
 10
4.693199709487809
 20
3.00789586374855
 30
0.0
 10
4.688859428847857
 20
3.003067301536604
 30
0.0
 10
4.688859428847857
 20
3.003067301536604
 30
0.0
 10
4.771609591923937
 20
2.980904743518851
 30
0.0
 10
4.771609591923937
 20
2.980904743518851
 30
0.0
 10
4.771609591923937
 20
2.980904743518851
 30
0.0
 10
4.771609591923937
 20
2.95038714526919
 30
0.0
 10
4.771609591923937
 20
2.95038714526919
 30
0.0
 10
4.771609591923937
 20
2.95038714526919
 30
0.0
 10
4.643110158227366
 20
2.984824559471807
 30
0.0
 10
4.643110158227366
 20
2.984824559471807
 30
0.0
 10
4.643110158227366
 20
2.994983528844694
 30
0.0
 10
4.64456143956635
 20
3.0034335127156
 30
0.0
 10
4.647491128998317
 20
3.010147384330526
 30
0.0
 10
4.650393691676284
 20
3.01687481932245
 30
0.0
 10
4.654367761137241
 20
3.022517184154388
 30
0.0
 10
4.659359083873185
 20
3.027101605580337
 30
0.0
 10
4.664363969986129
 20
3.031672463629286
 30
0.0
 10
4.670236912227065
 20
3.035551589451243
 30
0.0
 10
4.676991473972989
 20
3.038752546423207
 30
0.0
 10
4.683732472341914
 20
3.041939940018172
 30
0.0
 10
4.690866808643835
 20
3.045113770236136
 30
0.0
 10
4.698367356124751
 20
3.048260473700101
 30
0.0
 10
4.702192228438709
 20
3.049915205694083
 30
0.0
 10
4.706274804915664
 20
3.051529247557065
 30
0.0
 10
4.710615085555615
 20
3.053116162666047
 30
0.0
 10
4.714941802818567
 20
3.05470307777503
 30
0.0
 10
4.718902308902523
 20
3.056683330817008
 30
0.0
 10
4.722483040430483
 20
3.059056921791981
 30
0.0
 10
4.726063771958444
 20
3.061430512766955
 30
0.0
 10
4.72907484165241
 20
3.064373765575922
 30
0.0
 10
4.731489122758383
 20
3.067886680218883
 30
0.0
 10
4.733903403864356
 20
3.071399594861844
 30
0.0
 10
4.735110544417343
 20
3.075848382517795
 30
0.0
 10
4.735110544417343
 20
3.081165226301736
 30
0.0
 10
4.735110544417343
 20
3.089683027057641
 30
0.0
 10
4.73265557318037
 20
3.09695299712956
 30
0.0
 10
4.727732067329425
 20
3.103015826648492
 30
0.0
 10
4.72282212485548
 20
3.109092219544425
 30
0.0
 10
4.71652871792755
 20
3.11314766926738
 30
0.0
 10
4.708865409922635
 20
3.115209302571357
 30
0.0
 10
4.703697763285692
 20
3.116592767025342
 30
0.0
 10
4.699316792514741
 20
3.116538513517342
 30
0.0
 10
4.69573606098678
 20
3.115087232178358
 30
0.0
 10
4.692155329458821
 20
3.113635950839375
 30
0.0
 10
4.689279893534852
 20
3.111248796487401
 30
0.0
 10
4.687109753214877
 20
3.107912205745438
 30
0.0
 10
4.684939612894901
 20
3.104575615003475
 30
0.0
 10
4.683406951293918
 20
3.100655799050519
 30
0.0
 10
4.682484641657928
 20
3.096152757886569
 30
0.0
 10
4.681562332021938
 20
3.091636153345619
 30
0.0
 10
4.681114740580943
 20
3.08705173191967
 30
0.0
 10
4.681114740580943
 20
3.082385930231722
 30
0.0
 10
4.681114740580943
 20
3.082385930231722
 30
0.0
 10
4.647111354442321
 20
3.091500519575621
 30
0.0
 10
4.647111354442321
 20
3.091500519575621
 30
0.0
 10
4.646772270017325
 20
3.101591672063508
 30
0.0
 10
4.647938720439313
 20
3.110570627637409
 30
0.0
 10
4.650610705708282
 20
3.118437386297321
 30
0.0
  0
HATCH
  5
100
330
FB
100
AcDbEntity
  8
LAYER_2
 62
    18
100
AcDbHatch
 10
0.0
 20
0.0
 30
0.0
210
0.0
220
0.0
230
1.0
  2
SOLID
 70
     1
 71
     0
 91
        1
 92
        1
 93
        1
 72
     4
 94
        3
 73
     0
 74
     1
 95
      101
 96
       97
 40
0.0
 40
0.0
 40
0.0
 40
0.0
 40
1.0
 40
1.0
 40
1.0
 40
2.0
 40
2.0
 40
2.0
 40
3.0
 40
3.0
 40
3.0
 40
4.0
 40
4.0
 40
4.0
 40
5.0
 40
5.0
 40
5.0
 40
6.0
 40
6.0
 40
6.0
 40
7.0
 40
7.0
 40
7.0
 40
8.0
 40
8.0
 40
8.0
 40
9.0
 40
9.0
 40
9.0
 40
10.0
 40
10.0
 40
10.0
 40
11.0
 40
11.0
 40
11.0
 40
12.0
 40
12.0
 40
12.0
 40
13.0
 40
13.0
 40
13.0
 40
14.0
 40
14.0
 40
14.0
 40
15.0
 40
15.0
 40
15.0
 40
16.0
 40
16.0
 40
16.0
 40
17.0
 40
17.0
 40
17.0
 40
18.0
 40
18.0
 40
18.0
 40
19.0
 40
19.0
 40
19.0
 40
20.0
 40
20.0
 40
20.0
 40
21.0
 40
21.0
 40
21.0
 40
22.0
 40
22.0
 40
22.0
 40
23.0
 40
23.0
 40
23.0
 40
24.0
 40
24.0
 40
24.0
 40
25.0
 40
25.0
 40
25.0
 40
26.0
 40
26.0
 40
26.0
 40
27.0
 40
27.0
 40
27.0
 40
28.0
 40
28.0
 40
28.0
 40
29.0
 40
29.0
 40
29.0
 40
30.0
 40
30.0
 40
30.0
 40
31.0
 40
31.0
 40
31.0
 40
32.0
 40
32.0
 40
32.0
 40
32.0
 10
4.650610705708282
 20
3.118437386297321
 10
4.653269127600253
 20
3.126304144957234
 10
4.657270323815208
 20
3.132733185655162
 10
4.662614294353149
 20
3.137724508391107
 10
4.66794470151409
 20
3.142702267750051
 10
4.674645009752015
 20
3.145916788099016
 10
4.682742345820925
 20
3.147327379307
 10
4.690812555135835
 20
3.148737970514984
 10
4.700117031757732
 20
3.148046238287992
 10
4.710615085555615
 20
3.145238619249023
 10
4.718617477985526
 20
3.143082042306047
 10
4.726240095859441
 20
3.139799705072083
 10
4.733482939177361
 20
3.135364480793133
 10
4.74073934587228
 20
3.130915693137182
 10
4.747114133062209
 20
3.125612412730241
 10
4.752607300747148
 20
3.119481766326309
 10
4.758114031809087
 20
3.113337556545378
 10
4.762481439203039
 20
3.106420234275455
 10
4.765736649683002
 20
3.09871623613954
 10
4.768991860162966
 20
3.091012238003626
 10
4.770605902025948
 20
3.082914901934716
 10
4.770605902025948
 20
3.074410664555811
 10
4.770605902025948
 20
3.065567342751909
 10
4.769195310817964
 20
3.058365189564989
 10
4.766360565024995
 20
3.052804204995051
 10
4.763525819232027
 20
3.047216093671113
 10
4.759768763803068
 20
3.042604545491165
 10
4.75511652549212
 20
3.038928870324205
 10
4.750437160427173
 20
3.035280321911246
 10
4.745147443397231
 20
3.03222856208628
 10
4.739233811025297
 20
3.029814280980307
 10
4.733320178653362
 20
3.027399999874334
 10
4.727365856150429
 20
3.02503997227636
 10
4.721357280139496
 20
3.022734198186385
 10
4.715362267505562
 20
3.020428424096411
 10
4.709530015395627
 20
3.01778356558144
 10
4.70386052380969
 20
3.014799622641473
 10
4.698191032223753
 20
3.011815679701507
 10
4.693199709487809
 20
3.00789586374855
 10
4.688859428847857
 20
3.003067301536604
 10
4.688859428847857
 20
3.003067301536604
 10
4.771609591923937
 20
2.980904743518851
 10
4.771609591923937
 20
2.980904743518851
 10
4.771609591923937
 20
2.980904743518851
 10
4.771609591923937
 20
2.95038714526919
 10
4.771609591923937
 20
2.95038714526919
 10
4.771609591923937
 20
2.95038714526919
 10
4.643110158227366
 20
2.984824559471807
 10
4.643110158227366
 20
2.984824559471807
 10
4.643110158227366
 20
2.994983528844694
 10
4.64456143956635
 20
3.0034335127156
 10
4.647491128998317
 20
3.010147384330526
 10
4.650393691676284
 20
3.01687481932245
 10
4.654367761137241
 20
3.022517184154388
 10
4.659359083873185
 20
3.027101605580337
 10
4.664363969986129
 20
3.031672463629286
 10
4.670236912227065
 20
3.035551589451243
 10
4.676991473972989
 20
3.038752546423207
 10
4.683732472341914
 20
3.041939940018172
 10
4.690866808643835
 20
3.045113770236136
 10
4.698367356124751
 20
3.048260473700101
 10
4.702192228438709
 20
3.049915205694083
 10
4.706274804915664
 20
3.051529247557065
 10
4.710615085555615
 20
3.053116162666047
 10
4.714941802818567
 20
3.05470307777503
 10
4.718902308902523
 20
3.056683330817008
 10
4.722483040430483
 20
3.059056921791981
 10
4.726063771958444
 20
3.061430512766955
 10
4.72907484165241
 20
3.064373765575922
 10
4.731489122758383
 20
3.067886680218883
 10
4.733903403864356
 20
3.071399594861844
 10
4.735110544417343
 20
3.075848382517795
 10
4.735110544417343
 20
3.081165226301736
 10
4.735110544417343
 20
3.089683027057641
 10
4.73265557318037
 20
3.09695299712956
 10
4.727732067329425
 20
3.103015826648492
 10
4.72282212485548
 20
3.109092219544425
 10
4.71652871792755
 20
3.11314766926738
 10
4.708865409922635
 20
3.115209302571357
 10
4.703697763285692
 20
3.116592767025342
 10
4.699316792514741
 20
3.116538513517342
 10
4.69573606098678
 20
3.115087232178358
 10
4.692155329458821
 20
3.113635950839375
 10
4.689279893534852
 20
3.111248796487401
 10
4.687109753214877
 20
3.107912205745438
 10
4.684939612894901
 20
3.104575615003475
 10
4.683406951293918
 20
3.100655799050519
 10
4.682484641657928
 20
3.096152757886569
 10
4.681562332021938
 20
3.091636153345619
 10
4.681114740580943
 20
3.08705173191967
 10
4.681114740580943
 20
3.082385930231722
 10
4.681114740580943
 20
3.082385930231722
 10
4.647111354442321
 20
3.091500519575621
 10
4.647111354442321
 20
3.091500519575621
 10
4.646772270017325
 20
3.101591672063508
 10
4.647938720439313
 20
3.110570627637409
 10
4.650610705708282
 20
3.118437386297321
 97
        0
 75
     2
 76
     1
 98
        0
  0
POLYLINE
  5
101
330
FB
100
AcDbEntity
  8
LAYER_2
100
AcDb2dPolyline
 66
     1
 10
0.0
 20
0.0
 30
0.0
  0
VERTEX
  5
102
330
101
100
AcDbEntity
  8
LAYER_2
100
AcDbVertex
100
AcDb2dVertex
 10
4.780859815037834
 20
2.988418854376767
 30
0.0
  0
VERTEX
  5
103
330
101
100
AcDbEntity
  8
LAYER_2
100
AcDbVertex
100
AcDb2dVertex
 10
4.780859815037834
 20
3.020916705668406
 30
0.0
  0
VERTEX
  5
104
330
101
100
AcDbEntity
  8
LAYER_2
100
AcDbVertex
100
AcDb2dVertex
 10
4.856855416367988
 20
3.102541108453498
 30
0.0
  0
VERTEX
  5
105
330
101
100
AcDbEntity
  8
LAYER_2
100
AcDbVertex
100
AcDb2dVertex
 10
4.888607281924636
 20
3.094036871074592
 30
0.0
  0
VERTEX
  5
106
330
101
100
AcDbEntity
  8
LAYER_2
100
AcDbVertex
100
AcDb2dVertex
 10
4.888607281924636
 20
2.988798628932763
 30
0.0
  0
VERTEX
  5
107
330
101
100
AcDbEntity
  8
LAYER_2
100
AcDbVertex
100
AcDb2dVertex
 10
4.911854910102377
 20
2.982573038889832
 30
0.0
  0
VERTEX
  5
108
330
101
100
AcDbEntity
  8
LAYER_2
100
AcDbVertex
100
AcDb2dVertex
 10
4.911854910102377
 20
2.953316834701158
 30
0.0
  0
VERTEX
  5
109
330
101
100
AcDbEntity
  8
LAYER_2
100
AcDbVertex
100
AcDb2dVertex
 10
4.888607281924636
 20
2.959542424744088
 30
0.0
  0
VERTEX
  5
10A
330
101
100
AcDbEntity
  8
LAYER_2
100
AcDbVertex
100
AcDb2dVertex
 10
4.888607281924636
 20
2.919042181022538
 30
0.0
  0
VERTEX
  5
10B
330
101
100
AcDbEntity
  8
LAYER_2
100
AcDbVertex
100
AcDb2dVertex
 10
4.854861599949011
 20
2.928088953481438
 30
0.0
  0
VERTEX
  5
10C
330
101
100
AcDbEntity
  8
LAYER_2
100
AcDbVertex
100
AcDb2dVertex
 10
4.854861599949011
 20
2.968589197202987
 30
0.0
  0
VERTEX
  5
10D
330
101
100
AcDbEntity
  8
LAYER_2
100
AcDbVertex
100
AcDb2dVertex
 10
4.780859815037834
 20
2.988418854376767
 30
0.0
  0
SEQEND
  5
10E
330
101
100
AcDbEntity
  8
LAYER_2
  0
POLYLINE
  5
10F
330
FB
100
AcDbEntity
  8
LAYER_2
100
AcDb2dPolyline
 66
     1
 10
0.0
 20
0.0
 30
0.0
  0
VERTEX
  5
110
330
10F
100
AcDbEntity
  8
LAYER_2
100
AcDbVertex
100
AcDb2dVertex
 10
4.854102050837019
 20
3.058799217628984
 30
0.0
  0
VERTEX
  5
111
330
10F
100
AcDbEntity
  8
LAYER_2
100
AcDbVertex
100
AcDb2dVertex
 10
4.808854625165523
 20
3.010174511084525
 30
0.0
  0
VERTEX
  5
112
330
10F
100
AcDbEntity
  8
LAYER_2
100
AcDbVertex
100
AcDb2dVertex
 10
4.854861599949011
 20
2.997845401391662
 30
0.0
  0
VERTEX
  5
113
330
10F
100
AcDbEntity
  8
LAYER_2
100
AcDbVertex
100
AcDb2dVertex
 10
4.854861599949011
 20
3.058595766973986
 30
0.0
  0
VERTEX
  5
114
330
10F
100
AcDbEntity
  8
LAYER_2
100
AcDbVertex
100
AcDb2dVertex
 10
4.854102050837019
 20
3.058799217628984
 30
0.0
  0
SEQEND
  5
115
330
10F
100
AcDbEntity
  8
LAYER_2
  0
HATCH
  5
116
330
FB
100
AcDbEntity
  8
LAYER_2
 62
    18
100
AcDbHatch
 10
0.0
 20
0.0
 30
0.0
210
0.0
220
0.0
230
1.0
  2
SOLID
 70
     1
 71
     0
 91
        2
 92
        1
 93
       11
 72
     1
 10
4.780859815037834
 20
2.988418854376767
 11
4.780859815037834
 21
3.020916705668406
 72
     1
 10
4.780859815037834
 20
3.020916705668406
 11
4.856855416367988
 21
3.102541108453498
 72
     1
 10
4.856855416367988
 20
3.102541108453498
 11
4.888607281924636
 21
3.094036871074592
 72
     1
 10
4.888607281924636
 20
3.094036871074592
 11
4.888607281924636
 21
2.988798628932763
 72
     1
 10
4.888607281924636
 20
2.988798628932763
 11
4.911854910102377
 21
2.982573038889832
 72
     1
 10
4.911854910102377
 20
2.982573038889832
 11
4.911854910102377
 21
2.953316834701158
 72
     1
 10
4.911854910102377
 20
2.953316834701158
 11
4.888607281924636
 21
2.959542424744088
 72
     1
 10
4.888607281924636
 20
2.959542424744088
 11
4.888607281924636
 21
2.919042181022538
 72
     1
 10
4.888607281924636
 20
2.919042181022538
 11
4.854861599949011
 21
2.928088953481438
 72
     1
 10
4.854861599949011
 20
2.928088953481438
 11
4.854861599949011
 21
2.968589197202987
 72
     1
 10
4.854861599949011
 20
2.968589197202987
 11
4.780859815037834
 21
2.988418854376767
 97
        0
 92
        1
 93
        4
 72
     1
 10
4.854102050837019
 20
3.058799217628984
 11
4.808854625165523
 21
3.010174511084525
 72
     1
 10
4.808854625165523
 20
3.010174511084525
 11
4.854861599949011
 21
2.997845401391662
 72
     1
 10
4.854861599949011
 20
2.997845401391662
 11
4.854861599949011
 21
3.058595766973986
 72
     1
 10
4.854861599949011
 20
3.058595766973986
 11
4.854102050837019
 21
3.058799217628984
 97
        0
 75
     2
 76
     1
 98
        0
  0
ENDBLK
  5
FE
330
FB
100
AcDbEntity
  8
0
100
AcDbBlockEnd
  0
BLOCK
  5
119
330
117
100
AcDbEntity
  8
0
100
AcDbBlockBegin
  2
BLOCK_12
 70
     0
 10
0.0
 20
0.0
 30
0.0
  3
BLOCK_12
  1

  0
POLYLINE
  5
11B
330
117
100
AcDbEntity
  8
LAYER_2
100
AcDb2dPolyline
 66
     1
 10
0.0
 20
0.0
 30
0.0
  0
VERTEX
  5
11C
330
11B
100
AcDbEntity
  8
LAYER_2
100
AcDbVertex
100
AcDb2dVertex
 10
4.951365027302938
 20
3.093833420419595
 30
0.0
  0
VERTEX
  5
11D
330
11B
100
AcDbEntity
  8
LAYER_2
100
AcDbVertex
100
AcDb2dVertex
 10
4.942820099793033
 20
3.024538127327365
 30
0.0
  0
VERTEX
  5
11E
330
11B
100
AcDbEntity
  8
LAYER_2
100
AcDbVertex
100
AcDb2dVertex
 10
4.928361539911194
 20
3.025596070733354
 30
0.0
  0
VERTEX
  5
11F
330
11B
100
AcDbEntity
  8
LAYER_2
100
AcDbVertex
100
AcDb2dVertex
 10
4.931698130653157
 20
3.094864237071583
 30
0.0
  0
VERTEX
  5
120
330
11B
100
AcDbEntity
  8
LAYER_2
100
AcDbVertex
100
AcDb2dVertex
 10
4.951365027302938
 20
3.093833420419595
 30
0.0
  0
SEQEND
  5
121
330
11B
100
AcDbEntity
  8
LAYER_2
  0
HATCH
  5
122
330
117
100
AcDbEntity
  8
LAYER_2
 62
    18
100
AcDbHatch
 10
0.0
 20
0.0
 30
0.0
210
0.0
220
0.0
230
1.0
  2
SOLID
 70
     1
 71
     0
 91
        1
 92
        1
 93
        4
 72
     1
 10
4.951365027302938
 20
3.093833420419595
 11
4.942820099793033
 21
3.024538127327365
 72
     1
 10
4.942820099793033
 20
3.024538127327365
 11
4.928361539911194
 21
3.025596070733354
 72
     1
 10
4.928361539911194
 20
3.025596070733354
 11
4.931698130653157
 21
3.094864237071583
 72
     1
 10
4.931698130653157
 20
3.094864237071583
 11
4.951365027302938
 21
3.093833420419595
 97
        0
 75
     2
 76
     1
 98
        0
  0
POLYLINE
  5
123
330
117
100
AcDbEntity
  8
LAYER_2
100
AcDb2dPolyline
 66
     1
 10
0.0
 20
0.0
 30
0.0
  0
VERTEX
  5
124
330
123
100
AcDbEntity
  8
LAYER_2
100
AcDbVertex
100
AcDb2dVertex
 10
4.989152595624518
 20
3.077652311658775
 30
0.0
  0
VERTEX
  5
125
330
123
100
AcDbEntity
  8
LAYER_2
100
AcDbVertex
100
AcDb2dVertex
 10
4.980594104737613
 20
3.008343455189546
 30
0.0
  0
VERTEX
  5
126
330
123
100
AcDbEntity
  8
LAYER_2
100
AcDbVertex
100
AcDb2dVertex
 10
4.966149108232774
 20
3.009414961972534
 30
0.0
  0
VERTEX
  5
127
330
123
100
AcDbEntity
  8
LAYER_2
100
AcDbVertex
100
AcDb2dVertex
 10
4.969485698974736
 20
3.078669564933763
 30
0.0
  0
VERTEX
  5
128
330
123
100
AcDbEntity
  8
LAYER_2
100
AcDbVertex
100
AcDb2dVertex
 10
4.989152595624518
 20
3.077652311658775
 30
0.0
  0
SEQEND
  5
129
330
123
100
AcDbEntity
  8
LAYER_2
  0
HATCH
  5
12A
330
117
100
AcDbEntity
  8
LAYER_2
 62
    18
100
AcDbHatch
 10
0.0
 20
0.0
 30
0.0
210
0.0
220
0.0
230
1.0
  2
SOLID
 70
     1
 71
     0
 91
        1
 92
        1
 93
        4
 72
     1
 10
4.989152595624518
 20
3.077652311658775
 11
4.980594104737613
 21
3.008343455189546
 72
     1
 10
4.980594104737613
 20
3.008343455189546
 11
4.966149108232774
 21
3.009414961972534
 72
     1
 10
4.966149108232774
 20
3.009414961972534
 11
4.969485698974736
 21
3.078669564933763
 72
     1
 10
4.969485698974736
 20
3.078669564933763
 11
4.989152595624518
 21
3.077652311658775
 97
        0
 75
     2
 76
     1
 98
        0
  0
ENDBLK
  5
11A
330
117
100
AcDbEntity
  8
0
100
AcDbBlockEnd
  0
BLOCK
  5
12D
330
12B
100
AcDbEntity
  8
0
100
AcDbBlockBegin
  2
BLOCK_13
 70
     0
 10
0.0
 20
0.0
 30
0.0
  3
BLOCK_13
  1

  0
POLYLINE
  5
12F
330
12B
100
AcDbEntity
  8
LAYER_2
 62
     7
100
AcDb2dPolyline
 66
     1
 10
0.0
 20
0.0
 30
0.0
  0
VERTEX
  5
130
330
12F
100
AcDbEntity
  8
LAYER_2
 62
     7
100
AcDbVertex
100
AcDb2dVertex
 10
5.680545738191829
 20
2.504613196792147
 30
0.0
  0
VERTEX
  5
131
330
12F
100
AcDbEntity
  8
LAYER_2
 62
     7
100
AcDbVertex
100
AcDb2dVertex
 10
6.373851316916119
 20
1.499621214611323
 30
0.0
  0
SEQEND
  5
132
330
12F
100
AcDbEntity
  8
LAYER_2
  0
ENDBLK
  5
12E
330
12B
100
AcDbEntity
  8
0
100
AcDbBlockEnd
  0
BLOCK
  5
135
330
133
100
AcDbEntity
  8
0
100
AcDbBlockBegin
  2
BLOCK_14
 70
     0
 10
0.0
 20
0.0
 30
0.0
  3
BLOCK_14
  1

  0
POLYLINE
  5
137
330
133
100
AcDbEntity
  8
LAYER_2
 62
     7
100
AcDb2dPolyline
 66
     1
 10
0.0
 20
0.0
 30
0.0
  0
VERTEX
  5
138
330
137
100
AcDbEntity
  8
LAYER_2
 62
     7
100
AcDbVertex
100
AcDb2dVertex
 10
7.2118103113438
 20
2.504613196792147
 30
0.0
  0
VERTEX
  5
139
330
137
100
AcDbEntity
  8
LAYER_2
 62
     7
100
AcDbVertex
100
AcDb2dVertex
 10
6.51850473261951
 20
1.499621214611323
 30
0.0
  0
SEQEND
  5
13A
330
137
100
AcDbEntity
  8
LAYER_2
  0
ENDBLK
  5
136
330
133
100
AcDbEntity
  8
0
100
AcDbBlockEnd
  0
BLOCK
  5
13E
330
13C
100
AcDbEntity
  8
0
100
AcDbBlockBegin
  2
BLOCK_15
 70
     0
 10
0.0
 20
0.0
 30
0.0
  3
BLOCK_15
  1

  0
POLYLINE
  5
140
330
13C
100
AcDbEntity
  8
LAYER_2
 62
     7
100
AcDb2dPolyline
 66
     1
 10
0.0
 20
0.0
 30
0.0
  0
VERTEX
  5
141
330
140
100
AcDbEntity
  8
LAYER_2
 62
     7
100
AcDbVertex
100
AcDb2dVertex
 10
6.299252743416949
 20
6.853764285301782
 30
0.0
  0
VERTEX
  5
142
330
140
100
AcDbEntity
  8
LAYER_2
 62
     7
100
AcDbVertex
100
AcDb2dVertex
 10
6.601431219596588
 20
4.978437527794637
 30
0.0
  0
VERTEX
  5
143
330
140
100
AcDbEntity
  8
LAYER_2
 62
     7
100
AcDbVertex
100
AcDb2dVertex
 10
6.923466479704007
 20
4.978342584155638
 30
0.0
  0
VERTEX
  5
144
330
140
100
AcDbEntity
  8
LAYER_2
 62
     7
100
AcDbVertex
100
AcDb2dVertex
 10
7.128680373711725
 20
6.853764285301782
 30
0.0
  0
SEQEND
  5
145
330
140
100
AcDbEntity
  8
LAYER_2
  0
ENDBLK
  5
13F
330
13C
100
AcDbEntity
  8
0
100
AcDbBlockEnd
  0
BLOCK
  5
148
330
146
100
AcDbEntity
  8
0
100
AcDbBlockBegin
  2
BLOCK_16
 70
     0
 10
0.0
 20
0.0
 30
0.0
  3
BLOCK_16
  1

  0
POLYLINE
  5
14A
330
146
100
AcDbEntity
  8
LAYER_2
 62
     7
100
AcDb2dPolyline
 66
     1
 10
0.0
 20
0.0
 30
0.0
  0
VERTEX
  5
14B
330
14A
100
AcDbEntity
  8
LAYER_2
 62
     7
100
AcDbVertex
100
AcDb2dVertex
 10
5.334123526238681
 20
6.385061448006494
 30
0.0
  0
VERTEX
  5
14C
330
14A
100
AcDbEntity
  8
LAYER_2
 62
     7
100
AcDbVertex
100
AcDb2dVertex
 10
6.385637891528988
 20
4.860843049205944
 30
0.0
  0
VERTEX
  5
14D
330
14A
100
AcDbEntity
  8
LAYER_2
 62
     7
100
AcDbVertex
100
AcDb2dVertex
 10
6.730120540571157
 20
4.860843049205944
 30
0.0
  0
VERTEX
  5
14E
330
14A
100
AcDbEntity
  8
LAYER_2
 62
     7
100
AcDbVertex
100
AcDb2dVertex
 10
7.656512753037855
 20
6.385061448006494
 30
0.0
  0
SEQEND
  5
14F
330
14A
100
AcDbEntity
  8
LAYER_2
  0
ENDBLK
  5
149
330
146
100
AcDbEntity
  8
0
100
AcDbBlockEnd
  0
BLOCK
  5
152
330
150
100
AcDbEntity
  8
0
100
AcDbBlockBegin
  2
BLOCK_17
 70
     0
 10
0.0
 20
0.0
 30
0.0
  3
BLOCK_17
  1

  0
POLYLINE
  5
154
330
150
100
AcDbEntity
  8
LAYER_2
 62
     7
100
AcDb2dPolyline
 66
     1
 10
0.0
 20
0.0
 30
0.0
  0
VERTEX
  5
155
330
154
100
AcDbEntity
  8
LAYER_2
 62
     7
100
AcDbVertex
100
AcDb2dVertex
 10
5.854808005885891
 20
6.589875222392717
 30
0.0
  0
VERTEX
  5
156
330
154
100
AcDbEntity
  8
LAYER_2
 62
     7
100
AcDbVertex
100
AcDb2dVertex
 10
6.15698648206553
 20
4.714548464885572
 30
0.0
  0
VERTEX
  5
157
330
154
100
AcDbEntity
  8
LAYER_2
 62
     7
100
AcDbVertex
100
AcDb2dVertex
 10
6.479021742172949
 20
4.714453521246573
 30
0.0
  0
VERTEX
  5
158
330
154
100
AcDbEntity
  8
LAYER_2
 62
     7
100
AcDbVertex
100
AcDb2dVertex
 10
6.684235636180667
 20
6.589875222392717
 30
0.0
  0
SEQEND
  5
159
330
154
100
AcDbEntity
  8
LAYER_2
  0
ENDBLK
  5
153
330
150
100
AcDbEntity
  8
0
100
AcDbBlockEnd
  0
BLOCK
  5
15C
330
15A
100
AcDbEntity
  8
0
100
AcDbBlockBegin
  2
BLOCK_18
 70
     0
 10
0.0
 20
0.0
 30
0.0
  3
BLOCK_18
  1

  0
POLYLINE
  5
15E
330
15A
100
AcDbEntity
  8
LAYER_2
 62
     7
100
AcDb2dPolyline
 66
     1
 10
0.0
 20
0.0
 30
0.0
  0
VERTEX
  5
15F
330
15E
100
AcDbEntity
  8
LAYER_2
 62
     7
100
AcDbVertex
100
AcDb2dVertex
 10
4.861900992611933
 20
6.121179166785929
 30
0.0
  0
VERTEX
  5
160
330
15E
100
AcDbEntity
  8
LAYER_2
 62
     7
100
AcDbVertex
100
AcDb2dVertex
 10
5.913415357902239
 20
4.596953986296879
 30
0.0
  0
VERTEX
  5
161
330
15E
100
AcDbEntity
  8
LAYER_2
 62
     7
100
AcDbVertex
100
AcDb2dVertex
 10
6.257898006944409
 20
4.596953986296879
 30
0.0
  0
VERTEX
  5
162
330
15E
100
AcDbEntity
  8
LAYER_2
 62
     7
100
AcDbVertex
100
AcDb2dVertex
 10
7.184290219411106
 20
6.121179166785929
 30
0.0
  0
SEQEND
  5
163
330
15E
100
AcDbEntity
  8
LAYER_2
  0
ENDBLK
  5
15D
330
15A
100
AcDbEntity
  8
0
100
AcDbBlockEnd
  0
BLOCK
  5
166
330
164
100
AcDbEntity
  8
0
100
AcDbBlockBegin
  2
BLOCK_19
 70
     0
 10
0.0
 20
0.0
 30
0.0
  3
BLOCK_19
  1

  0
POLYLINE
  5
168
330
164
100
AcDbEntity
  8
LAYER_2
 62
     7
100
AcDb2dPolyline
 66
     1
 10
0.0
 20
0.0
 30
0.0
  0
VERTEX
  5
169
330
168
100
AcDbEntity
  8
LAYER_2
 62
     7
100
AcDbVertex
100
AcDb2dVertex
 10
5.382585472259143
 20
6.325986159483652
 30
0.0
  0
VERTEX
  5
16A
330
168
100
AcDbEntity
  8
LAYER_2
 62
     7
100
AcDbVertex
100
AcDb2dVertex
 10
5.684763948438782
 20
4.450659401976506
 30
0.0
  0
VERTEX
  5
16B
330
168
100
AcDbEntity
  8
LAYER_2
 62
     7
100
AcDbVertex
100
AcDb2dVertex
 10
6.006799208546201
 20
4.450564458337507
 30
0.0
  0
VERTEX
  5
16C
330
168
100
AcDbEntity
  8
LAYER_2
 62
     7
100
AcDbVertex
100
AcDb2dVertex
 10
6.212013102553919
 20
6.325986159483652
 30
0.0
  0
SEQEND
  5
16D
330
168
100
AcDbEntity
  8
LAYER_2
  0
ENDBLK
  5
167
330
164
100
AcDbEntity
  8
0
100
AcDbBlockEnd
  0
BLOCK
  5
170
330
16E
100
AcDbEntity
  8
0
100
AcDbBlockBegin
  2
BLOCK_20
 70
     0
 10
0.0
 20
0.0
 30
0.0
  3
BLOCK_20
  1

  0
POLYLINE
  5
172
330
16E
100
AcDbEntity
  8
LAYER_2
 62
     7
100
AcDb2dPolyline
 66
     1
 10
0.0
 20
0.0
 30
0.0
  0
VERTEX
  5
173
330
172
100
AcDbEntity
  8
LAYER_2
 62
     7
100
AcDbVertex
100
AcDb2dVertex
 10
4.417456255080875
 20
5.857290103876863
 30
0.0
  0
VERTEX
  5
174
330
172
100
AcDbEntity
  8
LAYER_2
 62
     7
100
AcDbVertex
100
AcDb2dVertex
 10
5.468970620371182
 20
4.333064923387814
 30
0.0
  0
VERTEX
  5
175
330
172
100
AcDbEntity
  8
LAYER_2
 62
     7
100
AcDbVertex
100
AcDb2dVertex
 10
5.813453269413351
 20
4.333064923387814
 30
0.0
  0
VERTEX
  5
176
330
172
100
AcDbEntity
  8
LAYER_2
 62
     7
100
AcDbVertex
100
AcDb2dVertex
 10
6.739845481880049
 20
5.857290103876863
 30
0.0
  0
SEQEND
  5
177
330
172
100
AcDbEntity
  8
LAYER_2
  0
ENDBLK
  5
171
330
16E
100
AcDbEntity
  8
0
100
AcDbBlockEnd
  0
BLOCK
  5
17A
330
178
100
AcDbEntity
  8
0
100
AcDbBlockBegin
  2
BLOCK_21
 70
     0
 10
0.0
 20
0.0
 30
0.0
  3
BLOCK_21
  1

  0
POLYLINE
  5
17C
330
178
100
AcDbEntity
  8
LAYER_2
 62
     7
100
AcDb2dPolyline
 66
     1
 10
0.0
 20
0.0
 30
0.0
  0
VERTEX
  5
17D
330
17C
100
AcDbEntity
  8
LAYER_2
 62
     7
100
AcDbVertex
100
AcDb2dVertex
 10
4.938140734728085
 20
6.062097096574586
 30
0.0
  0
VERTEX
  5
17E
330
17C
100
AcDbEntity
  8
LAYER_2
 62
     7
100
AcDbVertex
100
AcDb2dVertex
 10
5.240319210907725
 20
4.186770339067441
 30
0.0
  0
VERTEX
  5
17F
330
17C
100
AcDbEntity
  8
LAYER_2
 62
     7
100
AcDbVertex
100
AcDb2dVertex
 10
5.562354471015143
 20
4.186675395428441
 30
0.0
  0
VERTEX
  5
180
330
17C
100
AcDbEntity
  8
LAYER_2
 62
     7
100
AcDbVertex
100
AcDb2dVertex
 10
5.767568365022862
 20
6.062097096574586
 30
0.0
  0
SEQEND
  5
181
330
17C
100
AcDbEntity
  8
LAYER_2
  0
ENDBLK
  5
17B
330
178
100
AcDbEntity
  8
0
100
AcDbBlockEnd
  0
BLOCK
  5
184
330
182
100
AcDbEntity
  8
0
100
AcDbBlockBegin
  2
BLOCK_22
 70
     0
 10
0.0
 20
0.0
 30
0.0
  3
BLOCK_22
  1

  0
POLYLINE
  5
186
330
182
100
AcDbEntity
  8
LAYER_2
 62
     7
100
AcDb2dPolyline
 66
     1
 10
0.0
 20
0.0
 30
0.0
  0
VERTEX
  5
187
330
186
100
AcDbEntity
  8
LAYER_2
 62
     7
100
AcDbVertex
100
AcDb2dVertex
 10
3.973011517549818
 20
5.593401040967798
 30
0.0
  0
VERTEX
  5
188
330
186
100
AcDbEntity
  8
LAYER_2
 62
     7
100
AcDbVertex
100
AcDb2dVertex
 10
5.024525882840124
 20
4.069175860478748
 30
0.0
  0
VERTEX
  5
189
330
186
100
AcDbEntity
  8
LAYER_2
 62
     7
100
AcDbVertex
100
AcDb2dVertex
 10
5.369008531882294
 20
4.069175860478748
 30
0.0
  0
VERTEX
  5
18A
330
186
100
AcDbEntity
  8
LAYER_2
 62
     7
100
AcDbVertex
100
AcDb2dVertex
 10
6.295400744348991
 20
5.593401040967798
 30
0.0
  0
SEQEND
  5
18B
330
186
100
AcDbEntity
  8
LAYER_2
  0
ENDBLK
  5
185
330
182
100
AcDbEntity
  8
0
100
AcDbBlockEnd
  0
BLOCK
  5
18E
330
18C
100
AcDbEntity
  8
0
100
AcDbBlockBegin
  2
BLOCK_23
 70
     0
 10
0.0
 20
0.0
 30
0.0
  3
BLOCK_23
  1

  0
POLYLINE
  5
190
330
18C
100
AcDbEntity
  8
LAYER_2
 62
     7
100
AcDb2dPolyline
 66
     1
 10
0.0
 20
0.0
 30
0.0
  0
VERTEX
  5
191
330
190
100
AcDbEntity
  8
LAYER_2
 62
     7
100
AcDbVertex
100
AcDb2dVertex
 10
4.493695997197028
 20
5.784319135617675
 30
0.0
  0
VERTEX
  5
192
330
190
100
AcDbEntity
  8
LAYER_2
 62
     7
100
AcDbVertex
100
AcDb2dVertex
 10
4.795874473376667
 20
3.90899237811053
 30
0.0
  0
VERTEX
  5
193
330
190
100
AcDbEntity
  8
LAYER_2
 62
     7
100
AcDbVertex
100
AcDb2dVertex
 10
5.117909733484086
 20
3.908897434471531
 30
0.0
  0
VERTEX
  5
194
330
190
100
AcDbEntity
  8
LAYER_2
 62
     7
100
AcDbVertex
100
AcDb2dVertex
 10
5.323123627491804
 20
5.784319135617675
 30
0.0
  0
SEQEND
  5
195
330
190
100
AcDbEntity
  8
LAYER_2
  0
ENDBLK
  5
18F
330
18C
100
AcDbEntity
  8
0
100
AcDbBlockEnd
  0
BLOCK
  5
198
330
196
100
AcDbEntity
  8
0
100
AcDbBlockBegin
  2
BLOCK_24
 70
     0
 10
0.0
 20
0.0
 30
0.0
  3
BLOCK_24
  1

  0
POLYLINE
  5
19A
330
196
100
AcDbEntity
  8
LAYER_2
 62
     7
100
AcDb2dPolyline
 66
     1
 10
0.0
 20
0.0
 30
0.0
  0
VERTEX
  5
19B
330
19A
100
AcDbEntity
  8
LAYER_2
 62
     7
100
AcDbVertex
100
AcDb2dVertex
 10
3.52856678001876
 20
5.315623080010887
 30
0.0
  0
VERTEX
  5
19C
330
19A
100
AcDbEntity
  8
LAYER_2
 62
     7
100
AcDbVertex
100
AcDb2dVertex
 10
4.580081145309067
 20
3.791397899521837
 30
0.0
  0
VERTEX
  5
19D
330
19A
100
AcDbEntity
  8
LAYER_2
 62
     7
100
AcDbVertex
100
AcDb2dVertex
 10
4.924563794351235
 20
3.791397899521837
 30
0.0
  0
VERTEX
  5
19E
330
19A
100
AcDbEntity
  8
LAYER_2
 62
     7
100
AcDbVertex
100
AcDb2dVertex
 10
5.850956006817934
 20
5.315623080010887
 30
0.0
  0
SEQEND
  5
19F
330
19A
100
AcDbEntity
  8
LAYER_2
  0
ENDBLK
  5
199
330
196
100
AcDbEntity
  8
0
100
AcDbBlockEnd
  0
BLOCK
  5
1A2
330
1A0
100
AcDbEntity
  8
0
100
AcDbBlockBegin
  2
BLOCK_25
 70
     0
 10
0.0
 20
0.0
 30
0.0
  3
BLOCK_25
  1

  0
POLYLINE
  5
1A4
330
1A0
100
AcDbEntity
  8
LAYER_2
 62
     7
100
AcDb2dPolyline
 66
     1
 10
0.0
 20
0.0
 30
0.0
  0
VERTEX
  5
1A5
330
1A4
100
AcDbEntity
  8
LAYER_2
 62
     7
100
AcDbVertex
100
AcDb2dVertex
 10
4.04925125966597
 20
5.52043007270861
 30
0.0
  0
VERTEX
  5
1A6
330
1A4
100
AcDbEntity
  8
LAYER_2
 62
     7
100
AcDbVertex
100
AcDb2dVertex
 10
4.35142973584561
 20
3.645103315201464
 30
0.0
  0
VERTEX
  5
1A7
330
1A4
100
AcDbEntity
  8
LAYER_2
 62
     7
100
AcDbVertex
100
AcDb2dVertex
 10
4.673464995953029
 20
3.645008371562465
 30
0.0
  0
VERTEX
  5
1A8
330
1A4
100
AcDbEntity
  8
LAYER_2
 62
     7
100
AcDbVertex
100
AcDb2dVertex
 10
4.878678889960746
 20
5.52043007270861
 30
0.0
  0
SEQEND
  5
1A9
330
1A4
100
AcDbEntity
  8
LAYER_2
  0
ENDBLK
  5
1A3
330
1A0
100
AcDbEntity
  8
0
100
AcDbBlockEnd
  0
BLOCK
  5
1AC
330
1AA
100
AcDbEntity
  8
0
100
AcDbBlockBegin
  2
BLOCK_26
 70
     0
 10
0.0
 20
0.0
 30
0.0
  3
BLOCK_26
  1

  0
POLYLINE
  5
1AE
330
1AA
100
AcDbEntity
  8
LAYER_2
 62
     7
100
AcDb2dPolyline
 66
     1
 10
0.0
 20
0.0
 30
0.0
  0
VERTEX
  5
1AF
330
1AE
100
AcDbEntity
  8
LAYER_2
 62
     7
100
AcDbVertex
100
AcDb2dVertex
 10
3.056344246392012
 20
5.051734017101822
 30
0.0
  0
VERTEX
  5
1B0
330
1AE
100
AcDbEntity
  8
LAYER_2
 62
     7
100
AcDbVertex
100
AcDb2dVertex
 10
4.107858611682318
 20
3.527508836612772
 30
0.0
  0
VERTEX
  5
1B1
330
1AE
100
AcDbEntity
  8
LAYER_2
 62
     7
100
AcDbVertex
100
AcDb2dVertex
 10
4.452341260724487
 20
3.527508836612772
 30
0.0
  0
VERTEX
  5
1B2
330
1AE
100
AcDbEntity
  8
LAYER_2
 62
     7
100
AcDbVertex
100
AcDb2dVertex
 10
5.378733473191185
 20
5.051734017101822
 30
0.0
  0
SEQEND
  5
1B3
330
1AE
100
AcDbEntity
  8
LAYER_2
  0
ENDBLK
  5
1AD
330
1AA
100
AcDbEntity
  8
0
100
AcDbBlockEnd
  0
BLOCK
  5
1B6
330
1B4
100
AcDbEntity
  8
0
100
AcDbBlockBegin
  2
BLOCK_27
 70
     0
 10
0.0
 20
0.0
 30
0.0
  3
BLOCK_27
  1

  0
POLYLINE
  5
1B8
330
1B4
100
AcDbEntity
  8
LAYER_2
 62
     7
100
AcDb2dPolyline
 66
     1
 10
0.0
 20
0.0
 30
0.0
  0
VERTEX
  5
1B9
330
1B8
100
AcDbEntity
  8
LAYER_2
 62
     7
100
AcDbVertex
100
AcDb2dVertex
 10
3.577028726039222
 20
5.256541009799544
 30
0.0
  0
VERTEX
  5
1BA
330
1B8
100
AcDbEntity
  8
LAYER_2
 62
     7
100
AcDbVertex
100
AcDb2dVertex
 10
3.879207202218861
 20
3.381214252292399
 30
0.0
  0
VERTEX
  5
1BB
330
1B8
100
AcDbEntity
  8
LAYER_2
 62
     7
100
AcDbVertex
100
AcDb2dVertex
 10
4.20124246232628
 20
3.3811193086534
 30
0.0
  0
VERTEX
  5
1BC
330
1B8
100
AcDbEntity
  8
LAYER_2
 62
     7
100
AcDbVertex
100
AcDb2dVertex
 10
4.406456356333997
 20
5.256541009799544
 30
0.0
  0
SEQEND
  5
1BD
330
1B8
100
AcDbEntity
  8
LAYER_2
  0
ENDBLK
  5
1B7
330
1B4
100
AcDbEntity
  8
0
100
AcDbBlockEnd
  0
BLOCK
  5
1C0
330
1BE
100
AcDbEntity
  8
0
100
AcDbBlockBegin
  2
BLOCK_28
 70
     0
 10
0.0
 20
0.0
 30
0.0
  3
BLOCK_28
  1

  0
POLYLINE
  5
1C2
330
1BE
100
AcDbEntity
  8
LAYER_2
 62
     7
100
AcDb2dPolyline
 66
     1
 10
0.0
 20
0.0
 30
0.0
  0
VERTEX
  5
1C3
330
1C2
100
AcDbEntity
  8
LAYER_2
 62
     7
100
AcDbVertex
100
AcDb2dVertex
 10
2.611899508860954
 20
4.787844954192757
 30
0.0
  0
VERTEX
  5
1C4
330
1C2
100
AcDbEntity
  8
LAYER_2
 62
     7
100
AcDbVertex
100
AcDb2dVertex
 10
3.663413874151261
 20
3.263619773703707
 30
0.0
  0
VERTEX
  5
1C5
330
1C2
100
AcDbEntity
  8
LAYER_2
 62
     7
100
AcDbVertex
100
AcDb2dVertex
 10
4.00789652319343
 20
3.263619773703707
 30
0.0
  0
VERTEX
  5
1C6
330
1C2
100
AcDbEntity
  8
LAYER_2
 62
     7
100
AcDbVertex
100
AcDb2dVertex
 10
4.934288735660128
 20
4.787844954192757
 30
0.0
  0
SEQEND
  5
1C7
330
1C2
100
AcDbEntity
  8
LAYER_2
  0
ENDBLK
  5
1C1
330
1BE
100
AcDbEntity
  8
0
100
AcDbBlockEnd
  0
BLOCK
  5
1CA
330
1C8
100
AcDbEntity
  8
0
100
AcDbBlockBegin
  2
BLOCK_29
 70
     0
 10
0.0
 20
0.0
 30
0.0
  3
BLOCK_29
  1

  0
POLYLINE
  5
1CC
330
1C8
100
AcDbEntity
  8
LAYER_2
 62
     7
100
AcDb2dPolyline
 66
     1
 10
0.0
 20
0.0
 30
0.0
  0
VERTEX
  5
1CD
330
1CC
100
AcDbEntity
  8
LAYER_2
 62
     7
100
AcDbVertex
100
AcDb2dVertex
 10
3.132583988508164
 20
4.992651946890478
 30
0.0
  0
VERTEX
  5
1CE
330
1CC
100
AcDbEntity
  8
LAYER_2
 62
     7
100
AcDbVertex
100
AcDb2dVertex
 10
3.434762464687803
 20
3.117325189383334
 30
0.0
  0
VERTEX
  5
1CF
330
1CC
100
AcDbEntity
  8
LAYER_2
 62
     7
100
AcDbVertex
100
AcDb2dVertex
 10
3.756797724795222
 20
3.117230245744334
 30
0.0
  0
VERTEX
  5
1D0
330
1CC
100
AcDbEntity
  8
LAYER_2
 62
     7
100
AcDbVertex
100
AcDb2dVertex
 10
3.96201161880294
 20
4.992651946890478
 30
0.0
  0
SEQEND
  5
1D1
330
1CC
100
AcDbEntity
  8
LAYER_2
  0
ENDBLK
  5
1CB
330
1C8
100
AcDbEntity
  8
0
100
AcDbBlockEnd
  0
BLOCK
  5
1D4
330
1D2
100
AcDbEntity
  8
0
100
AcDbBlockBegin
  2
BLOCK_30
 70
     0
 10
0.0
 20
0.0
 30
0.0
  3
BLOCK_30
  1

  0
POLYLINE
  5
1D6
330
1D2
100
AcDbEntity
  8
LAYER_2
 62
     7
100
AcDb2dPolyline
 66
     1
 10
0.0
 20
0.0
 30
0.0
  0
VERTEX
  5
1D7
330
1D6
100
AcDbEntity
  8
LAYER_2
 62
     7
100
AcDbVertex
100
AcDb2dVertex
 10
2.167454771329897
 20
4.523955891283691
 30
0.0
  0
VERTEX
  5
1D8
330
1D6
100
AcDbEntity
  8
LAYER_2
 62
     7
100
AcDbVertex
100
AcDb2dVertex
 10
3.218969136620203
 20
2.999730710794641
 30
0.0
  0
VERTEX
  5
1D9
330
1D6
100
AcDbEntity
  8
LAYER_2
 62
     7
100
AcDbVertex
100
AcDb2dVertex
 10
3.563451785662372
 20
2.999730710794641
 30
0.0
  0
VERTEX
  5
1DA
330
1D6
100
AcDbEntity
  8
LAYER_2
 62
     7
100
AcDbVertex
100
AcDb2dVertex
 10
4.489843998129071
 20
4.523955891283691
 30
0.0
  0
SEQEND
  5
1DB
330
1D6
100
AcDbEntity
  8
LAYER_2
  0
ENDBLK
  5
1D5
330
1D2
100
AcDbEntity
  8
0
100
AcDbBlockEnd
  0
BLOCK
  5
1DE
330
1DC
100
AcDbEntity
  8
0
100
AcDbBlockBegin
  2
BLOCK_31
 70
     0
 10
0.0
 20
0.0
 30
0.0
  3
BLOCK_31
  1

  0
POLYLINE
  5
1E0
330
1DC
100
AcDbEntity
  8
LAYER_2
 62
     7
100
AcDb2dPolyline
 66
     1
 10
0.0
 20
0.0
 30
0.0
  0
VERTEX
  5
1E1
330
1E0
100
AcDbEntity
  8
LAYER_2
 62
     7
100
AcDbVertex
100
AcDb2dVertex
 10
2.674250352929261
 20
4.714873985933568
 30
0.0
  0
VERTEX
  5
1E2
330
1E0
100
AcDbEntity
  8
LAYER_2
 62
     7
100
AcDbVertex
100
AcDb2dVertex
 10
2.9764288291089
 20
2.839547228426423
 30
0.0
  0
VERTEX
  5
1E3
330
1E0
100
AcDbEntity
  8
LAYER_2
 62
     7
100
AcDbVertex
100
AcDb2dVertex
 10
3.298464089216319
 20
2.839452284787424
 30
0.0
  0
VERTEX
  5
1E4
330
1E0
100
AcDbEntity
  8
LAYER_2
 62
     7
100
AcDbVertex
100
AcDb2dVertex
 10
3.503677983224037
 20
4.714873985933568
 30
0.0
  0
SEQEND
  5
1E5
330
1E0
100
AcDbEntity
  8
LAYER_2
  0
ENDBLK
  5
1DF
330
1DC
100
AcDbEntity
  8
0
100
AcDbBlockEnd
  0
BLOCK
  5
1E8
330
1E6
100
AcDbEntity
  8
0
100
AcDbBlockBegin
  2
BLOCK_32
 70
     0
 10
0.0
 20
0.0
 30
0.0
  3
BLOCK_32
  1

  0
POLYLINE
  5
1EA
330
1E6
100
AcDbEntity
  8
LAYER_2
 62
     7
100
AcDb2dPolyline
 66
     1
 10
0.0
 20
0.0
 30
0.0
  0
VERTEX
  5
1EB
330
1EA
100
AcDbEntity
  8
LAYER_2
 62
     7
100
AcDbVertex
100
AcDb2dVertex
 10
1.709121135750993
 20
4.24617793032678
 30
0.0
  0
VERTEX
  5
1EC
330
1EA
100
AcDbEntity
  8
LAYER_2
 62
     7
100
AcDbVertex
100
AcDb2dVertex
 10
2.7606355010413
 20
2.72195274983773
 30
0.0
  0
VERTEX
  5
1ED
330
1EA
100
AcDbEntity
  8
LAYER_2
 62
     7
100
AcDbVertex
100
AcDb2dVertex
 10
3.105118150083469
 20
2.72195274983773
 30
0.0
  0
VERTEX
  5
1EE
330
1EA
100
AcDbEntity
  8
LAYER_2
 62
     7
100
AcDbVertex
100
AcDb2dVertex
 10
4.031510362550168
 20
4.24617793032678
 30
0.0
  0
SEQEND
  5
1EF
330
1EA
100
AcDbEntity
  8
LAYER_2
  0
ENDBLK
  5
1E9
330
1E6
100
AcDbEntity
  8
0
100
AcDbBlockEnd
  0
BLOCK
  5
1F2
330
1F0
100
AcDbEntity
  8
0
100
AcDbBlockBegin
  2
BLOCK_33
 70
     0
 10
0.0
 20
0.0
 30
0.0
  3
BLOCK_33
  1

  0
POLYLINE
  5
1F4
330
1F0
100
AcDbEntity
  8
LAYER_2
 62
     7
100
AcDb2dPolyline
 66
     1
 10
0.0
 20
0.0
 30
0.0
  0
VERTEX
  5
1F5
330
1F4
100
AcDbEntity
  8
LAYER_2
 62
     7
100
AcDbVertex
100
AcDb2dVertex
 10
2.229805615398203
 20
4.450984923024502
 30
0.0
  0
VERTEX
  5
1F6
330
1F4
100
AcDbEntity
  8
LAYER_2
 62
     7
100
AcDbVertex
100
AcDb2dVertex
 10
2.531984091577843
 20
2.575658165517357
 30
0.0
  0
VERTEX
  5
1F7
330
1F4
100
AcDbEntity
  8
LAYER_2
 62
     7
100
AcDbVertex
100
AcDb2dVertex
 10
2.854019351685261
 20
2.575563221878358
 30
0.0
  0
VERTEX
  5
1F8
330
1F4
100
AcDbEntity
  8
LAYER_2
 62
     7
100
AcDbVertex
100
AcDb2dVertex
 10
3.05923324569298
 20
4.450984923024502
 30
0.0
  0
SEQEND
  5
1F9
330
1F4
100
AcDbEntity
  8
LAYER_2
  0
ENDBLK
  5
1F3
330
1F0
100
AcDbEntity
  8
0
100
AcDbBlockEnd
  0
BLOCK
  5
1FC
330
1FA
100
AcDbEntity
  8
0
100
AcDbBlockBegin
  2
BLOCK_34
 70
     0
 10
0.0
 20
0.0
 30
0.0
  3
BLOCK_34
  1

  0
POLYLINE
  5
1FE
330
1FA
100
AcDbEntity
  8
LAYER_2
 62
     7
100
AcDb2dPolyline
 66
     1
 10
0.0
 20
0.0
 30
0.0
  0
VERTEX
  5
1FF
330
1FE
100
AcDbEntity
  8
LAYER_2
 62
     7
100
AcDbVertex
100
AcDb2dVertex
 10
1.236898602124245
 20
3.982288867417715
 30
0.0
  0
VERTEX
  5
200
330
1FE
100
AcDbEntity
  8
LAYER_2
 62
     7
100
AcDbVertex
100
AcDb2dVertex
 10
2.288412967414552
 20
2.458063686928665
 30
0.0
  0
VERTEX
  5
201
330
1FE
100
AcDbEntity
  8
LAYER_2
 62
     7
100
AcDbVertex
100
AcDb2dVertex
 10
2.632895616456721
 20
2.458063686928665
 30
0.0
  0
VERTEX
  5
202
330
1FE
100
AcDbEntity
  8
LAYER_2
 62
     7
100
AcDbVertex
100
AcDb2dVertex
 10
3.559287828923419
 20
3.982288867417715
 30
0.0
  0
SEQEND
  5
203
330
1FE
100
AcDbEntity
  8
LAYER_2
  0
ENDBLK
  5
1FD
330
1FA
100
AcDbEntity
  8
0
100
AcDbBlockEnd
  0
BLOCK
  5
206
330
204
100
AcDbEntity
  8
0
100
AcDbBlockBegin
  2
BLOCK_35
 70
     0
 10
0.0
 20
0.0
 30
0.0
  3
BLOCK_35
  1

  0
POLYLINE
  5
208
330
204
100
AcDbEntity
  8
LAYER_2
 62
     7
100
AcDb2dPolyline
 66
     1
 10
0.0
 20
0.0
 30
0.0
  0
VERTEX
  5
209
330
208
100
AcDbEntity
  8
LAYER_2
 62
     7
100
AcDbVertex
100
AcDb2dVertex
 10
1.757583081771455
 20
4.187095860115437
 30
0.0
  0
VERTEX
  5
20A
330
208
100
AcDbEntity
  8
LAYER_2
 62
     7
100
AcDbVertex
100
AcDb2dVertex
 10
2.059761557951094
 20
2.311769102608292
 30
0.0
  0
VERTEX
  5
20B
330
208
100
AcDbEntity
  8
LAYER_2
 62
     7
100
AcDbVertex
100
AcDb2dVertex
 10
2.381796818058513
 20
2.311674158969293
 30
0.0
  0
VERTEX
  5
20C
330
208
100
AcDbEntity
  8
LAYER_2
 62
     7
100
AcDbVertex
100
AcDb2dVertex
 10
2.587010712066231
 20
4.187095860115437
 30
0.0
  0
SEQEND
  5
20D
330
208
100
AcDbEntity
  8
LAYER_2
  0
ENDBLK
  5
207
330
204
100
AcDbEntity
  8
0
100
AcDbBlockEnd
  0
BLOCK
  5
210
330
20E
100
AcDbEntity
  8
0
100
AcDbBlockBegin
  2
BLOCK_36
 70
     0
 10
0.0
 20
0.0
 30
0.0
  3
BLOCK_36
  1

  0
POLYLINE
  5
212
330
20E
100
AcDbEntity
  8
LAYER_2
 62
     7
100
AcDb2dPolyline
 66
     1
 10
0.0
 20
0.0
 30
0.0
  0
VERTEX
  5
213
330
212
100
AcDbEntity
  8
LAYER_2
 62
     7
100
AcDbVertex
100
AcDb2dVertex
 10
0.7924538645931875
 20
3.718399804508649
 30
0.0
  0
VERTEX
  5
214
330
212
100
AcDbEntity
  8
LAYER_2
 62
     7
100
AcDbVertex
100
AcDb2dVertex
 10
1.843968229883494
 20
2.194174624019599
 30
0.0
  0
VERTEX
  5
215
330
212
100
AcDbEntity
  8
LAYER_2
 62
     7
100
AcDbVertex
100
AcDb2dVertex
 10
2.188450878925663
 20
2.194174624019599
 30
0.0
  0
VERTEX
  5
216
330
212
100
AcDbEntity
  8
LAYER_2
 62
     7
100
AcDbVertex
100
AcDb2dVertex
 10
3.114843091392361
 20
3.718399804508649
 30
0.0
  0
SEQEND
  5
217
330
212
100
AcDbEntity
  8
LAYER_2
  0
ENDBLK
  5
211
330
20E
100
AcDbEntity
  8
0
100
AcDbBlockEnd
  0
BLOCK
  5
21A
330
218
100
AcDbEntity
  8
0
100
AcDbBlockBegin
  2
BLOCK_37
 70
     0
 10
0.0
 20
0.0
 30
0.0
  3
BLOCK_37
  1

  0
POLYLINE
  5
21C
330
218
100
AcDbEntity
  8
LAYER_2
 62
     7
100
AcDb2dPolyline
 66
     1
 10
0.0
 20
0.0
 30
0.0
  0
VERTEX
  5
21D
330
21C
100
AcDbEntity
  8
LAYER_2
 62
     7
100
AcDbVertex
100
AcDb2dVertex
 10
1.313138344240397
 20
3.923206797206372
 30
0.0
  0
VERTEX
  5
21E
330
21C
100
AcDbEntity
  8
LAYER_2
 62
     7
100
AcDbVertex
100
AcDb2dVertex
 10
1.615316820420037
 20
2.047880039699226
 30
0.0
  0
VERTEX
  5
21F
330
21C
100
AcDbEntity
  8
LAYER_2
 62
     7
100
AcDbVertex
100
AcDb2dVertex
 10
1.937352080527456
 20
2.047785096060228
 30
0.0
  0
VERTEX
  5
220
330
21C
100
AcDbEntity
  8
LAYER_2
 62
     7
100
AcDbVertex
100
AcDb2dVertex
 10
2.142565974535173
 20
3.923206797206372
 30
0.0
  0
SEQEND
  5
221
330
21C
100
AcDbEntity
  8
LAYER_2
  0
ENDBLK
  5
21B
330
218
100
AcDbEntity
  8
0
100
AcDbBlockEnd
  0
BLOCK
  5
224
330
222
100
AcDbEntity
  8
0
100
AcDbBlockBegin
  2
BLOCK_38
 70
     0
 10
0.0
 20
0.0
 30
0.0
  3
BLOCK_38
  1

  0
POLYLINE
  5
226
330
222
100
AcDbEntity
  8
LAYER_2
 62
     7
100
AcDb2dPolyline
 66
     1
 10
0.0
 20
0.0
 30
0.0
  0
VERTEX
  5
227
330
226
100
AcDbEntity
  8
LAYER_2
 62
     7
100
AcDbVertex
100
AcDb2dVertex
 10
0.3480091270621299
 20
3.454510741599584
 30
0.0
  0
VERTEX
  5
228
330
226
100
AcDbEntity
  8
LAYER_2
 62
     7
100
AcDbVertex
100
AcDb2dVertex
 10
1.399523492352436
 20
1.930285561110534
 30
0.0
  0
VERTEX
  5
229
330
226
100
AcDbEntity
  8
LAYER_2
 62
     7
100
AcDbVertex
100
AcDb2dVertex
 10
1.744006141394606
 20
1.930285561110534
 30
0.0
  0
VERTEX
  5
22A
330
226
100
AcDbEntity
  8
LAYER_2
 62
     7
100
AcDbVertex
100
AcDb2dVertex
 10
2.670398353861303
 20
3.454510741599584
 30
0.0
  0
SEQEND
  5
22B
330
226
100
AcDbEntity
  8
LAYER_2
  0
ENDBLK
  5
225
330
222
100
AcDbEntity
  8
0
100
AcDbBlockEnd
  0
BLOCK
  5
22E
330
22C
100
AcDbEntity
  8
0
100
AcDbBlockBegin
  2
BLOCK_39
 70
     0
 10
0.0
 20
0.0
 30
0.0
  3
BLOCK_39
  1

  0
POLYLINE
  5
230
330
22C
100
AcDbEntity
  8
LAYER_2
 62
     7
100
AcDb2dPolyline
 66
     1
 10
0.0
 20
0.0
 30
0.0
  0
VERTEX
  5
231
330
230
100
AcDbEntity
  8
LAYER_2
 62
     7
100
AcDbVertex
100
AcDb2dVertex
 10
0.8409158106136485
 20
3.631539938201615
 30
0.0
  0
VERTEX
  5
232
330
230
100
AcDbEntity
  8
LAYER_2
 62
     7
100
AcDbVertex
100
AcDb2dVertex
 10
1.143094286793288
 20
1.75621318069447
 30
0.0
  0
VERTEX
  5
233
330
230
100
AcDbEntity
  8
LAYER_2
 62
     7
100
AcDbVertex
100
AcDb2dVertex
 10
1.465129546900707
 20
1.756118237055471
 30
0.0
  0
VERTEX
  5
234
330
230
100
AcDbEntity
  8
LAYER_2
 62
     7
100
AcDbVertex
100
AcDb2dVertex
 10
1.670343440908425
 20
3.631539938201615
 30
0.0
  0
SEQEND
  5
235
330
230
100
AcDbEntity
  8
LAYER_2
  0
ENDBLK
  5
22F
330
22C
100
AcDbEntity
  8
0
100
AcDbBlockEnd
  0
BLOCK
  5
238
330
236
100
AcDbEntity
  8
0
100
AcDbBlockBegin
  2
BLOCK_40
 70
     0
 10
0.0
 20
0.0
 30
0.0
  3
BLOCK_40
  1

  0
POLYLINE
  5
23A
330
236
100
AcDbEntity
  8
LAYER_2
 62
     7
100
AcDb2dPolyline
 66
     1
 10
0.0
 20
0.0
 30
0.0
  0
VERTEX
  5
23B
330
23A
100
AcDbEntity
  8
LAYER_2
 62
     7
100
AcDbVertex
100
AcDb2dVertex
 10
-0.1242134065646187
 20
3.162843882594827
 30
0.0
  0
VERTEX
  5
23C
330
23A
100
AcDbEntity
  8
LAYER_2
 62
     7
100
AcDbVertex
100
AcDb2dVertex
 10
0.9273009587256879
 20
1.638618702105778
 30
0.0
  0
VERTEX
  5
23D
330
23A
100
AcDbEntity
  8
LAYER_2
 62
     7
100
AcDbVertex
100
AcDb2dVertex
 10
1.271783607767857
 20
1.638618702105778
 30
0.0
  0
VERTEX
  5
23E
330
23A
100
AcDbEntity
  8
LAYER_2
 62
     7
100
AcDbVertex
100
AcDb2dVertex
 10
2.198175820234555
 20
3.162843882594827
 30
0.0
  0
SEQEND
  5
23F
330
23A
100
AcDbEntity
  8
LAYER_2
  0
ENDBLK
  5
239
330
236
100
AcDbEntity
  8
0
100
AcDbBlockEnd
  0
ENDSEC
  0
SECTION
  2
ENTITIES
  0
POLYLINE
  5
3C
330
1F
100
AcDbEntity
  8
LAYER_2
100
AcDb2dPolyline
 66
     1
 10
0.0
 20
0.0
 30
0.0
  0
VERTEX
  5
3D
330
3C
100
AcDbEntity
  8
LAYER_2
100
AcDbVertex
100
AcDb2dVertex
 10
8.000005275559035
 20
0.0
 30
0.0
  0
VERTEX
  5
3E
330
3C
100
AcDbEntity
  8
LAYER_2
100
AcDbVertex
100
AcDb2dVertex
 10
0.0
 20
0.0
 30
0.0
  0
VERTEX
  5
3F
330
3C
100
AcDbEntity
  8
LAYER_2
100
AcDbVertex
100
AcDb2dVertex
 10
0.0
 20
8.000005275559035
 30
0.0
  0
VERTEX
  5
40
330
3C
100
AcDbEntity
  8
LAYER_2
100
AcDbVertex
100
AcDb2dVertex
 10
8.000005275559035
 20
8.000005275559035
 30
0.0
  0
VERTEX
  5
41
330
3C
100
AcDbEntity
  8
LAYER_2
100
AcDbVertex
100
AcDb2dVertex
 10
8.000005275559035
 20
0.0
 30
0.0
  0
SEQEND
  5
42
330
3C
100
AcDbEntity
  8
LAYER_2
  0
INSERT
  5
44
330
1F
100
AcDbEntity
  8
LAYER_2
100
AcDbBlockReference
  2
BLOCK_2
 10
0.0
 20
0.0
 30
0.0
  0
MTEXT
  5
8A
330
1F
100
AcDbEntity
  8
LAYER_2
 62
    18
100
AcDbMText
 10
2.399998869992311
 20
6.969473454487495
 30
0.0
 40
0.1322223094154896
 41
0.0
 71
     7
 72
     1
  1
\f12 pt Helvetica* 55 Roman   05472|b0|i0|c0|p34;\W1;800-503-5444  /  birdbarrier.com
  0
POLYLINE
  5
8B
330
1F
100
AcDbEntity
  8
LAYER_2
 62
     7
100
AcDb2dPolyline
 66
     1
 10
0.0
 20
0.0
 30
0.0
  0
VERTEX
  5
8C
330
8B
100
AcDbEntity
  8
LAYER_2
 62
     7
100
AcDbVertex
100
AcDb2dVertex
 10
6.57071017069193
 20
1.473457460378614
 30
0.0
  0
VERTEX
  5
8D
330
8B
100
AcDbEntity
  8
LAYER_2
 62
     7
100
AcDbVertex
100
AcDb2dVertex
 10
6.57071017069193
 20
1.509007071495219
 30
0.0
  0
VERTEX
  5
8E
330
8B
100
AcDbEntity
  8
LAYER_2
 62
     7
100
AcDbVertex
100
AcDb2dVertex
 10
6.332225312903581
 20
1.509007071495219
 30
0.0
  0
VERTEX
  5
8F
330
8B
100
AcDbEntity
  8
LAYER_2
 62
     7
100
AcDbVertex
100
AcDb2dVertex
 10
6.332225312903581
 20
1.473457460378614
 30
0.0
  0
VERTEX
  5
90
330
8B
100
AcDbEntity
  8
LAYER_2
 62
     7
100
AcDbVertex
100
AcDb2dVertex
 10
6.57071017069193
 20
1.473457460378614
 30
0.0
  0
SEQEND
  5
91
330
8B
100
AcDbEntity
  8
LAYER_2
  0
POLYLINE
  5
92
330
1F
100
AcDbEntity
  8
LAYER_2
  6
AI-LINETYPE-1
 62
     7
100
AcDb2dPolyline
 66
     1
 10
0.0
 20
0.0
 30
0.0
  0
VERTEX
  5
93
330
92
100
AcDbEntity
  8
LAYER_2
  6
AI-LINETYPE-1
 62
     7
100
AcDbVertex
100
AcDb2dVertex
 10
6.474166053207004
 20
1.474610347423601
 30
0.0
  0
VERTEX
  5
94
330
92
100
AcDbEntity
  8
LAYER_2
  6
AI-LINETYPE-1
 62
     7
100
AcDbVertex
100
AcDb2dVertex
 10
6.474166053207004
 20
1.509007071495219
 30
0.0
  0
VERTEX
  5
95
330
92
100
AcDbEntity
  8
LAYER_2
  6
AI-LINETYPE-1
 62
     7
100
AcDbVertex
100
AcDb2dVertex
 10
6.428715176880509
 20
1.509007071495219
 30
0.0
  0
VERTEX
  5
96
330
92
100
AcDbEntity
  8
LAYER_2
  6
AI-LINETYPE-1
 62
     7
100
AcDbVertex
100
AcDb2dVertex
 10
6.428715176880509
 20
1.474610347423601
 30
0.0
  0
VERTEX
  5
97
330
92
100
AcDbEntity
  8
LAYER_2
  6
AI-LINETYPE-1
 62
     7
100
AcDbVertex
100
AcDb2dVertex
 10
6.474166053207004
 20
1.474610347423601
 30
0.0
  0
SEQEND
  5
98
330
92
100
AcDbEntity
  8
LAYER_2
  6
AI-LINETYPE-1
  0
HATCH
  5
9A
330
1F
100
AcDbEntity
  8
LAYER_2
 62
     9
100
AcDbHatch
 10
0.0
 20
0.0
 30
0.0
210
0.0
220
0.0
230
1.0
  2
SOLID
 70
     1
 71
     0
 91
        1
 92
        1
 93
        4
 72
     1
 10
6.474166053207004
 20
1.474610347423601
 11
6.474166053207004
 21
1.509007071495219
 72
     1
 10
6.474166053207004
 20
1.509007071495219
 11
6.428715176880509
 21
1.509007071495219
 72
     1
 10
6.428715176880509
 20
1.509007071495219
 11
6.428715176880509
 21
1.474610347423601
 72
     1
 10
6.428715176880509
 20
1.474610347423601
 11
6.474166053207004
 21
1.474610347423601
 97
        0
 75
     2
 76
     1
 98
        0
  0
POLYLINE
  5
9B
330
1F
100
AcDbEntity
  8
LAYER_2
 62
     7
100
AcDb2dPolyline
 66
     1
 10
0.0
 20
0.0
 30
0.0
  0
VERTEX
  5
9C
330
9B
100
AcDbEntity
  8
LAYER_2
 62
     7
100
AcDbVertex
100
AcDb2dVertex
 10
6.507369200102634
 20
1.474271262998605
 30
0.0
  0
VERTEX
  5
9D
330
9B
100
AcDbEntity
  8
LAYER_2
 62
     7
100
AcDbVertex
100
AcDb2dVertex
 10
6.507030115677638
 20
1.509007071495219
 30
0.0
  0
VERTEX
  5
9E
330
9B
100
AcDbEntity
  8
LAYER_2
 62
     7
100
AcDbVertex
100
AcDb2dVertex
 10
6.396095255195871
 20
1.509007071495219
 30
0.0
  0
VERTEX
  5
9F
330
9B
100
AcDbEntity
  8
LAYER_2
 62
     7
100
AcDbVertex
100
AcDb2dVertex
 10
6.396475029751867
 20
1.474271262998605
 30
0.0
  0
VERTEX
  5
A0
330
9B
100
AcDbEntity
  8
LAYER_2
 62
     7
100
AcDbVertex
100
AcDb2dVertex
 10
6.507369200102634
 20
1.474271262998605
 30
0.0
  0
SEQEND
  5
A1
330
9B
100
AcDbEntity
  8
LAYER_2
  0
INSERT
  5
A3
330
1F
100
AcDbEntity
  8
LAYER_2
100
AcDbBlockReference
  2
BLOCK_7
 10
0.0
 20
0.0
 30
0.0
  0
INSERT
  5
AB
330
1F
100
AcDbEntity
  8
LAYER_2
100
AcDbBlockReference
  2
BLOCK_8
 10
0.0
 20
0.0
 30
0.0
  0
MTEXT
  5
B2
330
1F
100
AcDbEntity
  8
LAYER_2
 62
     7
100
AcDbMText
 10
6.356869968912307
 20
2.903281536948714
 30
0.0
 40
0.1735961469375453
 41
0.0
 71
     7
 72
     1
  1
\fHelvetica|b1|i0|c0|p34;\W1;5"
  0
INSERT
  5
B4
330
1F
100
AcDbEntity
  8
LAYER_2
100
AcDbBlockReference
  2
BLOCK_9
 10
0.0
 20
0.0
 30
0.0
  0
INSERT
  5
C2
330
1F
100
AcDbEntity
  8
LAYER_2
100
AcDbBlockReference
  2
BLOCK_10
 10
0.0
 20
0.0
 30
0.0
  0
POLYLINE
  5
CF
330
1F
100
AcDbEntity
  8
LAYER_2
 62
     7
100
AcDb2dPolyline
 66
     1
 10
0.0
 20
0.0
 30
0.0
  0
VERTEX
  5
D0
330
CF
100
AcDbEntity
  8
LAYER_2
 62
     7
100
AcDbVertex
100
AcDb2dVertex
 10
5.847212514765975
 20
2.809314461093759
 30
0.0
  0
VERTEX
  5
D1
330
CF
100
AcDbEntity
  8
LAYER_2
 62
     7
100
AcDbVertex
100
AcDb2dVertex
 10
7.087949552581178
 20
2.809314461093759
 30
0.0
  0
SEQEND
  5
D2
330
CF
100
AcDbEntity
  8
LAYER_2
  0
POLYLINE
  5
D3
330
1F
100
AcDbEntity
  8
LAYER_2
 62
    18
100
AcDb2dPolyline
 66
     1
 10
0.0
 20
0.0
 30
0.0
  0
VERTEX
  5
D4
330
D3
100
AcDbEntity
  8
LAYER_2
 62
    18
100
AcDbVertex
100
AcDb2dVertex
 10
7.173615841712225
 20
5.092586908625368
 30
0.0
  0
VERTEX
  5
D5
330
D3
100
AcDbEntity
  8
LAYER_2
 62
    18
100
AcDbVertex
100
AcDb2dVertex
 10
7.175921615802199
 20
5.125003379655007
 30
0.0
  0
VERTEX
  5
D6
330
D3
100
AcDbEntity
  8
LAYER_2
 62
    18
100
AcDbVertex
100
AcDb2dVertex
 10
6.770837798324704
 20
5.138892277702852
 30
0.0
  0
VERTEX
  5
D7
330
D3
100
AcDbEntity
  8
LAYER_2
 62
    18
100
AcDbVertex
100
AcDb2dVertex
 10
0.6875004533683546
 20
1.581598265198412
 30
0.0
  0
VERTEX
  5
D8
330
D3
100
AcDbEntity
  8
LAYER_2
 62
    18
100
AcDbVertex
100
AcDb2dVertex
 10
0.6892365656243353
 20
1.548612132334779
 30
0.0
  0
VERTEX
  5
D9
330
D3
100
AcDbEntity
  8
LAYER_2
 62
    18
100
AcDbVertex
100
AcDb2dVertex
 10
1.055556251636262
 20
1.486112091119474
 30
0.0
  0
VERTEX
  5
DA
330
D3
100
AcDbEntity
  8
LAYER_2
 62
    18
100
AcDbVertex
100
AcDb2dVertex
 10
7.173615841712225
 20
5.092586908625368
 30
0.0
  0
SEQEND
  5
DB
330
D3
100
AcDbEntity
  8
LAYER_2
  0
POLYLINE
  5
DC
330
1F
100
AcDbEntity
  8
LAYER_2
 62
    18
100
AcDb2dPolyline
 66
     1
 10
0.0
 20
0.0
 30
0.0
  0
VERTEX
  5
DD
330
DC
100
AcDbEntity
  8
LAYER_2
 62
    18
100
AcDbVertex
100
AcDb2dVertex
 10
7.162046281131354
 20
5.125003379655007
 30
0.0
  0
VERTEX
  5
DE
330
DC
100
AcDbEntity
  8
LAYER_2
 62
    18
100
AcDbVertex
100
AcDb2dVertex
 10
6.770837798324704
 20
5.175560867421945
 30
0.0
  0
VERTEX
  5
DF
330
DC
100
AcDbEntity
  8
LAYER_2
 62
    18
100
AcDbVertex
100
AcDb2dVertex
 10
0.6944449023922774
 20
1.585273940365371
 30
0.0
  0
VERTEX
  5
E0
330
DC
100
AcDbEntity
  8
LAYER_2
 62
    18
100
AcDbVertex
100
AcDb2dVertex
 10
1.053243695857787
 20
1.525459447796036
 30
0.0
  0
VERTEX
  5
E1
330
DC
100
AcDbEntity
  8
LAYER_2
 62
    18
100
AcDbVertex
100
AcDb2dVertex
 10
7.162046281131354
 20
5.125003379655007
 30
0.0
  0
SEQEND
  5
E2
330
DC
100
AcDbEntity
  8
LAYER_2
  0
POLYLINE
  5
E3
330
1F
100
AcDbEntity
  8
LAYER_2
 62
    18
100
AcDb2dPolyline
 66
     1
 10
0.0
 20
0.0
 30
0.0
  0
VERTEX
  5
E4
330
E3
100
AcDbEntity
  8
LAYER_2
 62
    18
100
AcDbVertex
100
AcDb2dVertex
 10
1.050924358390813
 20
1.5196814491941
 30
0.0
  0
VERTEX
  5
E5
330
E3
100
AcDbEntity
  8
LAYER_2
 62
    18
100
AcDbVertex
100
AcDb2dVertex
 10
1.050924358390813
 20
1.481486979562525
 30
0.0
  0
SEQEND
  5
E6
330
E3
100
AcDbEntity
  8
LAYER_2
  0
POLYLINE
  5
E7
330
1F
100
AcDbEntity
  8
LAYER_2
 62
    18
100
AcDb2dPolyline
 66
     1
 10
0.0
 20
0.0
 30
0.0
  0
VERTEX
  5
E8
330
E7
100
AcDbEntity
  8
LAYER_2
 62
    18
100
AcDbVertex
100
AcDb2dVertex
 10
1.759441264420434
 20
1.456869450307799
 30
0.0
  0
VERTEX
  5
E9
330
E7
100
AcDbEntity
  8
LAYER_2
 62
    18
100
AcDbVertex
100
AcDb2dVertex
 10
7.36111596535814
 20
4.875003214793787
 30
0.0
  0
SEQEND
  5
EA
330
E7
100
AcDbEntity
  8
LAYER_2
  0
POLYLINE
  5
EB
330
1F
100
AcDbEntity
  8
LAYER_2
100
AcDb2dPolyline
 66
     1
 10
0.0
 20
0.0
 30
0.0
  0
VERTEX
  5
EC
330
EB
100
AcDbEntity
  8
LAYER_2
100
AcDbVertex
100
AcDb2dVertex
 10
7.308652823122723
 20
4.774295140569907
 30
0.0
  0
VERTEX
  5
ED
330
EB
100
AcDbEntity
  8
LAYER_2
100
AcDbVertex
100
AcDb2dVertex
 10
7.417498923546513
 20
4.91429631796235
 30
0.0
  0
VERTEX
  5
EE
330
EB
100
AcDbEntity
  8
LAYER_2
100
AcDbVertex
100
AcDb2dVertex
 10
7.416861444827521
 20
4.913224811179362
 30
0.0
  0
VERTEX
  5
EF
330
EB
100
AcDbEntity
  8
LAYER_2
100
AcDbVertex
100
AcDb2dVertex
 10
7.212162959145797
 20
4.859676598783958
 30
0.0
  0
VERTEX
  5
F0
330
EB
100
AcDbEntity
  8
LAYER_2
100
AcDbVertex
100
AcDb2dVertex
 10
7.308652823122723
 20
4.774295140569907
 30
0.0
  0
SEQEND
  5
F1
330
EB
100
AcDbEntity
  8
LAYER_2
  0
HATCH
  5
F2
330
1F
100
AcDbEntity
  8
LAYER_2
 62
     7
100
AcDbHatch
 10
0.0
 20
0.0
 30
0.0
210
0.0
220
0.0
230
1.0
  2
SOLID
 70
     1
 71
     0
 91
        1
 92
        1
 93
        4
 72
     1
 10
7.308652823122723
 20
4.774295140569907
 11
7.417498923546513
 21
4.91429631796235
 72
     1
 10
7.417498923546513
 20
4.91429631796235
 11
7.416861444827521
 21
4.913224811179362
 72
     1
 10
7.416861444827521
 20
4.913224811179362
 11
7.212162959145797
 21
4.859676598783958
 72
     1
 10
7.212162959145797
 20
4.859676598783958
 11
7.308652823122723
 21
4.774295140569907
 97
        0
 75
     2
 76
     1
 98
        0
  0
POLYLINE
  5
F3
330
1F
100
AcDbEntity
  8
LAYER_2
100
AcDb2dPolyline
 66
     1
 10
0.0
 20
0.0
 30
0.0
  0
VERTEX
  5
F4
330
F3
100
AcDbEntity
  8
LAYER_2
100
AcDbVertex
100
AcDb2dVertex
 10
1.770047825234316
 20
1.524320124128049
 30
0.0
  0
VERTEX
  5
F5
330
F3
100
AcDbEntity
  8
LAYER_2
100
AcDbVertex
100
AcDb2dVertex
 10
1.661215288187526
 20
1.384318946735606
 30
0.0
  0
VERTEX
  5
F6
330
F3
100
AcDbEntity
  8
LAYER_2
100
AcDbVertex
100
AcDb2dVertex
 10
1.661839203529519
 20
1.385390453518594
 30
0.0
  0
VERTEX
  5
F7
330
F3
100
AcDbEntity
  8
LAYER_2
100
AcDbVertex
100
AcDb2dVertex
 10
1.866551252588243
 20
1.438938665913998
 30
0.0
  0
VERTEX
  5
F8
330
F3
100
AcDbEntity
  8
LAYER_2
100
AcDbVertex
100
AcDb2dVertex
 10
1.770047825234316
 20
1.524320124128049
 30
0.0
  0
SEQEND
  5
F9
330
F3
100
AcDbEntity
  8
LAYER_2
  0
HATCH
  5
FA
330
1F
100
AcDbEntity
  8
LAYER_2
 62
     7
100
AcDbHatch
 10
0.0
 20
0.0
 30
0.0
210
0.0
220
0.0
230
1.0
  2
SOLID
 70
     1
 71
     0
 91
        1
 92
        1
 93
        4
 72
     1
 10
1.770047825234316
 20
1.524320124128049
 11
1.661215288187526
 21
1.384318946735606
 72
     1
 10
1.661215288187526
 20
1.384318946735606
 11
1.661839203529519
 21
1.385390453518594
 72
     1
 10
1.661839203529519
 20
1.385390453518594
 11
1.866551252588243
 21
1.438938665913998
 72
     1
 10
1.866551252588243
 20
1.438938665913998
 11
1.770047825234316
 21
1.524320124128049
 97
        0
 75
     2
 76
     1
 98
        0
  0
INSERT
  5
FC
330
1F
100
AcDbEntity
  8
LAYER_2
100
AcDbBlockReference
  2
BLOCK_11
 10
0.0
 20
0.0
 30
0.0
  0
INSERT
  5
118
330
1F
100
AcDbEntity
  8
LAYER_2
100
AcDbBlockReference
  2
BLOCK_12
 10
0.0
 20
0.0
 30
0.0
  0
INSERT
  5
12C
330
1F
100
AcDbEntity
  8
LAYER_2
100
AcDbBlockReference
  2
BLOCK_13
 10
0.0
 20
0.0
 30
0.0
  0
INSERT
  5
134
330
1F
100
AcDbEntity
  8
LAYER_2
100
AcDbBlockReference
  2
BLOCK_14
 10
0.0
 20
0.0
 30
0.0
  0
MTEXT
  5
13B
330
1F
100
AcDbEntity
  8
LAYER_2
 62
    18
100
AcDbMText
 10
0.4476796029455216
 20
0.7152782494640457
 30
0.0
 40
0.1322223094154896
 41
0.0
 71
     7
 72
     1
  1
\fHelvetica Neue|b1|i0|c0|p34;\W1;304 Marine Grade Stainless Steel Spikes and Base
  0
INSERT
  5
13D
330
1F
100
AcDbEntity
  8
LAYER_2
100
AcDbBlockReference
  2
BLOCK_15
 10
0.0
 20
0.0
 30
0.0
  0
INSERT
  5
147
330
1F
100
AcDbEntity
  8
LAYER_2
100
AcDbBlockReference
  2
BLOCK_16
 10
0.0
 20
0.0
 30
0.0
  0
INSERT
  5
151
330
1F
100
AcDbEntity
  8
LAYER_2
100
AcDbBlockReference
  2
BLOCK_17
 10
0.0
 20
0.0
 30
0.0
  0
INSERT
  5
15B
330
1F
100
AcDbEntity
  8
LAYER_2
100
AcDbBlockReference
  2
BLOCK_18
 10
0.0
 20
0.0
 30
0.0
  0
INSERT
  5
165
330
1F
100
AcDbEntity
  8
LAYER_2
100
AcDbBlockReference
  2
BLOCK_19
 10
0.0
 20
0.0
 30
0.0
  0
INSERT
  5
16F
330
1F
100
AcDbEntity
  8
LAYER_2
100
AcDbBlockReference
  2
BLOCK_20
 10
0.0
 20
0.0
 30
0.0
  0
INSERT
  5
179
330
1F
100
AcDbEntity
  8
LAYER_2
100
AcDbBlockReference
  2
BLOCK_21
 10
0.0
 20
0.0
 30
0.0
  0
INSERT
  5
183
330
1F
100
AcDbEntity
  8
LAYER_2
100
AcDbBlockReference
  2
BLOCK_22
 10
0.0
 20
0.0
 30
0.0
  0
INSERT
  5
18D
330
1F
100
AcDbEntity
  8
LAYER_2
100
AcDbBlockReference
  2
BLOCK_23
 10
0.0
 20
0.0
 30
0.0
  0
INSERT
  5
197
330
1F
100
AcDbEntity
  8
LAYER_2
100
AcDbBlockReference
  2
BLOCK_24
 10
0.0
 20
0.0
 30
0.0
  0
INSERT
  5
1A1
330
1F
100
AcDbEntity
  8
LAYER_2
100
AcDbBlockReference
  2
BLOCK_25
 10
0.0
 20
0.0
 30
0.0
  0
INSERT
  5
1AB
330
1F
100
AcDbEntity
  8
LAYER_2
100
AcDbBlockReference
  2
BLOCK_26
 10
0.0
 20
0.0
 30
0.0
  0
INSERT
  5
1B5
330
1F
100
AcDbEntity
  8
LAYER_2
100
AcDbBlockReference
  2
BLOCK_27
 10
0.0
 20
0.0
 30
0.0
  0
INSERT
  5
1BF
330
1F
100
AcDbEntity
  8
LAYER_2
100
AcDbBlockReference
  2
BLOCK_28
 10
0.0
 20
0.0
 30
0.0
  0
INSERT
  5
1C9
330
1F
100
AcDbEntity
  8
LAYER_2
100
AcDbBlockReference
  2
BLOCK_29
 10
0.0
 20
0.0
 30
0.0
  0
INSERT
  5
1D3
330
1F
100
AcDbEntity
  8
LAYER_2
100
AcDbBlockReference
  2
BLOCK_30
 10
0.0
 20
0.0
 30
0.0
  0
INSERT
  5
1DD
330
1F
100
AcDbEntity
  8
LAYER_2
100
AcDbBlockReference
  2
BLOCK_31
 10
0.0
 20
0.0
 30
0.0
  0
INSERT
  5
1E7
330
1F
100
AcDbEntity
  8
LAYER_2
100
AcDbBlockReference
  2
BLOCK_32
 10
0.0
 20
0.0
 30
0.0
  0
INSERT
  5
1F1
330
1F
100
AcDbEntity
  8
LAYER_2
100
AcDbBlockReference
  2
BLOCK_33
 10
0.0
 20
0.0
 30
0.0
  0
INSERT
  5
1FB
330
1F
100
AcDbEntity
  8
LAYER_2
100
AcDbBlockReference
  2
BLOCK_34
 10
0.0
 20
0.0
 30
0.0
  0
INSERT
  5
205
330
1F
100
AcDbEntity
  8
LAYER_2
100
AcDbBlockReference
  2
BLOCK_35
 10
0.0
 20
0.0
 30
0.0
  0
INSERT
  5
20F
330
1F
100
AcDbEntity
  8
LAYER_2
100
AcDbBlockReference
  2
BLOCK_36
 10
0.0
 20
0.0
 30
0.0
  0
INSERT
  5
219
330
1F
100
AcDbEntity
  8
LAYER_2
100
AcDbBlockReference
  2
BLOCK_37
 10
0.0
 20
0.0
 30
0.0
  0
INSERT
  5
223
330
1F
100
AcDbEntity
  8
LAYER_2
100
AcDbBlockReference
  2
BLOCK_38
 10
0.0
 20
0.0
 30
0.0
  0
INSERT
  5
22D
330
1F
100
AcDbEntity
  8
LAYER_2
100
AcDbBlockReference
  2
BLOCK_39
 10
0.0
 20
0.0
 30
0.0
  0
INSERT
  5
237
330
1F
100
AcDbEntity
  8
LAYER_2
100
AcDbBlockReference
  2
BLOCK_40
 10
0.0
 20
0.0
 30
0.0
  0
MTEXT
  5
240
330
1F
100
AcDbEntity
  8
LAYER_2
 62
    18
100
AcDbMText
 10
0.3750070289803297
 20
5.975569533004048
 30
0.0
 40
0.1700001121056295
 41
0.0
 71
     7
 72
     1
  1
\fHelvetica Neue|b1|i0|c0|p34;\W1;Dura-Spike\fHelvetica Neue|b0|i0|c0|p34;\H0.0850001;TM
  0
MTEXT
  5
241
330
1F
100
AcDbEntity
  8
LAYER_2
 62
    18
100
AcDbMText
 10
0.3750070289803297
 20
5.742238758475643
 30
0.0
 40
0.1322223094154896
 41
0.0
 71
     7
 72
     1
  1
\f12 pt Helvetica* 55 Roman   05472|b0|i0|c0|p34;\W1;Xtra-Wide
  0
ENDSEC
  0
SECTION
  2
OBJECTS
  0
DICTIONARY
  5
C
330
0
100
AcDbDictionary
  3
ACAD_GROUP
350
D
  3
ACAD_LAYOUT
350
1A
  3
ACAD_MATERIAL
350
265
  3
ACAD_MLEADERSTYLE
350
28A
  3
ACAD_MLINESTYLE
350
17
  3
ACAD_PLOTSETTINGS
350
19
  3
ACAD_SCALELIST
350
243
  3
ACAD_VISUALSTYLE
350
2A
  3
ACDBHEADERROUNDTRIPXREC
350
269
  3
ACDBVARIABLEDICTIONARY
350
289
  0
DICTIONARY
  5
D
102
{ACAD_REACTORS
330
C
102
}
330
C
100
AcDbDictionary
  0
DICTIONARY
  5
1A
102
{ACAD_REACTORS
330
C
102
}
330
C
100
AcDbDictionary
  0
DICTIONARY
  5
265
102
{ACAD_REACTORS
330
C
102
}
330
C
100
AcDbDictionary
  3
BYBLOCK
350
267
  3
BYLAYER
350
266
  3
GLOBAL
350
268
  0
DICTIONARY
  5
28A
102
{ACAD_REACTORS
330
C
102
}
330
C
100
AcDbDictionary
  0
DICTIONARY
  5
17
102
{ACAD_REACTORS
330
C
102
}
330
C
100
AcDbDictionary
  3
STANDARD
350
18
  0
DICTIONARY
  5
19
102
{ACAD_REACTORS
330
C
102
}
330
C
100
AcDbDictionary
  0
DICTIONARY
  5
243
102
{ACAD_REACTORS
330
C
102
}
330
C
100
AcDbDictionary
  3
A0
350
244
  3
A1
350
245
  3
A2
350
246
  3
A3
350
247
  3
A4
350
248
  3
A5
350
249
  3
A6
350
24A
  3
A7
350
24B
  3
A8
350
24C
  3
A9
350
24D
  3
B0
350
24E
  3
B1
350
24F
  3
B2
350
250
  3
B3
350
251
  3
B4
350
252
  3
B5
350
253
  3
B6
350
254
  3
B7
350
255
  3
B8
350
256
  3
B9
350
257
  3
C0
350
258
  3
C1
350
259
  3
C2
350
25A
  3
C3
350
25B
  3
C4
350
25C
  3
C5
350
25D
  3
C6
350
25E
  3
C7
350
25F
  3
C8
350
260
  3
C9
350
261
  3
D0
350
262
  3
D1
350
263
  3
D2
350
264
  0
DICTIONARY
  5
2A
102
{ACAD_REACTORS
330
C
102
}
330
C
100
AcDbDictionary
  3
2DWIREFRAME
350
2F
  3
3D_HIDDEN
350
31
  3
3DWIREFRAME
350
30
  3
BASIC
350
32
  3
BRIGHTEN
350
36
  3
COLORCHANGE
350
3A
  3
CONCEPTUAL
350
34
  3
DIM
350
35
  3
FACEPATTERN
350
39
  3
FLAT
350
2B
  3
FLATWITHEDGES
350
2C
  3
GOURAUD
350
2D
  3
GOURAUDWITHEDGES
350
2E
  3
LINEPATTERN
350
38
  3
REALISTIC
350
33
  3
THICKEN
350
37
  0
DICTIONARY
  5
269
102
{ACAD_REACTORS
330
C
102
}
330
C
100
AcDbDictionary
  3
CEPSNTYPE
350
272
  3
DIMSTYLEDATA
350
288
  3
FINGERPRINTGUID
350
273
  3
HYPERLINKBASE
350
26C
  3
INSUNITS
350
271
  3
LAYOUTDICT
350
26E
  3
LWETCUNION
350
270
  3
PLOTSETDICT
350
26F
  3
PSVPSCALE
350
275
  3
PUCSBASE
350
278
  3
PUCSORGBACK
350
27E
  3
PUCSORGBOTTOM
350
27A
  3
PUCSORGFRONT
350
27D
  3
PUCSORGLEFT
350
27B
  3
PUCSORGRIGHT
350
27C
  3
PUCSORGTOP
350
279
  3
PUCSORTHOREF
350
276
  3
PUCSORTHOVIEW
350
277
  3
STYLESHEET
350
26D
  3
TSTACKALIGN
350
26A
  3
TSTACKSIZE
350
26B
  3
UCSBASE
350
281
  3
UCSORGBACK
350
287
  3
UCSORGBOTTOM
350
283
  3
UCSORGFRONT
350
286
  3
UCSORGLEFT
350
284
  3
UCSORGRIGHT
350
285
  3
UCSORGTOP
350
282
  3
UCSORTHOREF
350
27F
  3
UCSORTHOVIEW
350
280
  3
VERSIONGUID
350
274
  0
DICTIONARY
  5
289
102
{ACAD_REACTORS
330
C
102
}
330
C
100
AcDbDictionary
  3
CANNOSCALE
350
28C
  3
DIMASSOC
350
28D
  3
HIDETEXT
350
28E
  3
XCLIPFRAME
350
28B
  0
MATERIAL
  5
267
102
{ACAD_REACTORS
330
265
102
}
102
{ACAD_XDICTIONARY
360
291
102
}
330
265
100
AcDbMaterial
  1
ByBlock
  0
MATERIAL
  5
266
102
{ACAD_REACTORS
330
265
102
}
102
{ACAD_XDICTIONARY
360
28F
102
}
330
265
100
AcDbMaterial
  1
ByLayer
  0
MATERIAL
  5
268
102
{ACAD_REACTORS
330
265
102
}
102
{ACAD_XDICTIONARY
360
293
102
}
330
265
100
AcDbMaterial
  1
Global
  0
MLINESTYLE
  5
18
102
{ACAD_REACTORS
330
17
102
}
330
17
100
AcDbMlineStyle
  2
Standard
 70
     0
  3

 62
   256
 51
90.0
 52
90.0
 71
     2
 49
0.5
 62
   256
  6
BYLAYER
 49
-0.5
 62
   256
  6
BYLAYER
  0
ACAD_PROXY_OBJECT
  5
244
102
{ACAD_REACTORS
330
243
102
}
330
243
100
AcDbProxyObject
 90
      499
 91
      502
 93
       41
310
903313A31580
  0
ACAD_PROXY_OBJECT
  5
245
102
{ACAD_REACTORS
330
243
102
}
330
243
100
AcDbProxyObject
 90
      499
 91
      502
 93
      105
310
903313A324000000000000004000
  0
ACAD_PROXY_OBJECT
  5
246
102
{ACAD_REACTORS
330
243
102
}
330
243
100
AcDbProxyObject
 90
      499
 91
      502
 93
      105
310
903313A344000000000000104000
  0
ACAD_PROXY_OBJECT
  5
247
102
{ACAD_REACTORS
330
243
102
}
330
243
100
AcDbProxyObject
 90
      499
 91
      502
 93
      105
310
903313A354000000000000144000
  0
ACAD_PROXY_OBJECT
  5
248
102
{ACAD_REACTORS
330
243
102
}
330
243
100
AcDbProxyObject
 90
      499
 91
      502
 93
      105
310
903313A384000000000000204000
  0
ACAD_PROXY_OBJECT
  5
249
102
{ACAD_REACTORS
330
243
102
}
330
243
100
AcDbProxyObject
 90
      499
 91
      502
 93
      113
310
904313A31304000000000000244000
  0
ACAD_PROXY_OBJECT
  5
24A
102
{ACAD_REACTORS
330
243
102
}
330
243
100
AcDbProxyObject
 90
      499
 91
      502
 93
      113
310
904313A31364000000000000304000
  0
ACAD_PROXY_OBJECT
  5
24B
102
{ACAD_REACTORS
330
243
102
}
330
243
100
AcDbProxyObject
 90
      499
 91
      502
 93
      113
310
904313A32304000000000000344000
  0
ACAD_PROXY_OBJECT
  5
24C
102
{ACAD_REACTORS
330
243
102
}
330
243
100
AcDbProxyObject
 90
      499
 91
      502
 93
      113
310
904313A333040000000000003E4000
  0
ACAD_PROXY_OBJECT
  5
24D
102
{ACAD_REACTORS
330
243
102
}
330
243
100
AcDbProxyObject
 90
      499
 91
      502
 93
      113
310
904313A34304000000000000444000
  0
ACAD_PROXY_OBJECT
  5
24E
102
{ACAD_REACTORS
330
243
102
}
330
243
100
AcDbProxyObject
 90
      499
 91
      502
 93
      113
310
904313A35304000000000000494000
  0
ACAD_PROXY_OBJECT
  5
24F
102
{ACAD_REACTORS
330
243
102
}
330
243
100
AcDbProxyObject
 90
      499
 91
      502
 93
      121
310
905313A3130304000000000000594000
  0
ACAD_PROXY_OBJECT
  5
250
102
{ACAD_REACTORS
330
243
102
}
330
243
100
AcDbProxyObject
 90
      499
 91
      502
 93
      105
310
903323A310000000000000010100
  0
ACAD_PROXY_OBJECT
  5
251
102
{ACAD_REACTORS
330
243
102
}
330
243
100
AcDbProxyObject
 90
      499
 91
      502
 93
      105
310
903343A310000000000000410100
  0
ACAD_PROXY_OBJECT
  5
252
102
{ACAD_REACTORS
330
243
102
}
330
243
100
AcDbProxyObject
 90
      499
 91
      502
 93
      105
310
903383A310000000000000810100
  0
ACAD_PROXY_OBJECT
  5
253
102
{ACAD_REACTORS
330
243
102
}
330
243
100
AcDbProxyObject
 90
      499
 91
      502
 93
      113
310
90431303A310000000000000910100
  0
ACAD_PROXY_OBJECT
  5
254
102
{ACAD_REACTORS
330
243
102
}
330
243
100
AcDbProxyObject
 90
      499
 91
      502
 93
      121
310
9053130303A310000000000001650100
  0
ACAD_PROXY_OBJECT
  5
255
102
{ACAD_REACTORS
330
243
102
}
330
243
100
AcDbProxyObject
 90
      499
 91
      502
 93
      257
310
90E312F31323822203D2031272D3022000000000000200FC000000000000284000
  0
ACAD_PROXY_OBJECT
  5
256
102
{ACAD_REACTORS
330
243
102
}
330
243
100
AcDbProxyObject
 90
      499
 91
      502
 93
      249
310
90D312F363422203D2031272D3022000000000000240FC000000000000284000
  0
ACAD_PROXY_OBJECT
  5
257
102
{ACAD_REACTORS
330
243
102
}
330
243
100
AcDbProxyObject
 90
      499
 91
      502
 93
      249
310
90D312F333222203D2031272D3022000000000000280FC000000000000284000
  0
ACAD_PROXY_OBJECT
  5
258
102
{ACAD_REACTORS
330
243
102
}
330
243
100
AcDbProxyObject
 90
      499
 91
      502
 93
      249
310
90D312F313622203D2031272D30220000000000002C0FC000000000000284000
  0
ACAD_PROXY_OBJECT
  5
259
102
{ACAD_REACTORS
330
243
102
}
330
243
100
AcDbProxyObject
 90
      499
 91
      502
 93
      249
310
90D332F333222203D2031272D30220000000000002E0FC000000000000284000
  0
ACAD_PROXY_OBJECT
  5
25A
102
{ACAD_REACTORS
330
243
102
}
330
243
100
AcDbProxyObject
 90
      499
 91
      502
 93
      241
310
90C312F3822203D2031272D3022000000000000300FC000000000000284000
  0
ACAD_PROXY_OBJECT
  5
25B
102
{ACAD_REACTORS
330
243
102
}
330
243
100
AcDbProxyObject
 90
      499
 91
      502
 93
      249
310
90D332F313622203D2031272D3022000000000000320FC000000000000284000
  0
ACAD_PROXY_OBJECT
  5
25C
102
{ACAD_REACTORS
330
243
102
}
330
243
100
AcDbProxyObject
 90
      499
 91
      502
 93
      241
310
90C312F3422203D2031272D3022000000000000340FC000000000000284000
  0
ACAD_PROXY_OBJECT
  5
25D
102
{ACAD_REACTORS
330
243
102
}
330
243
100
AcDbProxyObject
 90
      499
 91
      502
 93
      241
310
90C332F3822203D2031272D3022000000000000360FC000000000000284000
  0
ACAD_PROXY_OBJECT
  5
25E
102
{ACAD_REACTORS
330
243
102
}
330
243
100
AcDbProxyObject
 90
      499
 91
      502
 93
      241
310
90C312F3222203D2031272D3022000000000000380FC000000000000284000
  0
ACAD_PROXY_OBJECT
  5
25F
102
{ACAD_REACTORS
330
243
102
}
330
243
100
AcDbProxyObject
 90
      499
 91
      502
 93
      241
310
90C332F3422203D2031272D30220000000000003A0FC000000000000284000
  0
ACAD_PROXY_OBJECT
  5
260
102
{ACAD_REACTORS
330
243
102
}
330
243
100
AcDbProxyObject
 90
      499
 91
      502
 93
      161
310
90A3122203D2031272D30224000000000000284000
  0
ACAD_PROXY_OBJECT
  5
261
102
{ACAD_REACTORS
330
243
102
}
330
243
100
AcDbProxyObject
 90
      499
 91
      502
 93
      257
310
90E312D312F3222203D2031272D30220000000000003E0FC000000000000284000
  0
ACAD_PROXY_OBJECT
  5
262
102
{ACAD_REACTORS
330
243
102
}
330
243
100
AcDbProxyObject
 90
      499
 91
      502
 93
      225
310
90A3322203D2031272D302200000000000002100000000000000284000
  0
ACAD_PROXY_OBJECT
  5
263
102
{ACAD_REACTORS
330
243
102
}
330
243
100
AcDbProxyObject
 90
      499
 91
      502
 93
      225
310
90A3622203D2031272D302200000000000006100000000000000284000
  0
ACAD_PROXY_OBJECT
  5
264
102
{ACAD_REACTORS
330
243
102
}
330
243
100
AcDbProxyObject
 90
      499
 91
      502
 93
      249
310
90D31272D3022203D2031272D30220000000000000A100000000000000284000
  0
ACAD_PROXY_OBJECT
  5
2F
102
{ACAD_REACTORS
330
2A
102
}
330
2A
100
AcDbProxyObject
 90
      499
 91
      501
 93
      436
310
42CC9915DA5C99599C985B595049028333333333333E3BF0000000000000FB0107901411070040501600405405064090741402480A0340
1001
ACAD
1000
AcDbSavedByObjectVersion
1070
     0
  0
ACAD_PROXY_OBJECT
  5
31
102
{ACAD_REACTORS
330
2A
102
}
330
2A
100
AcDbProxyObject
 90
      499
 91
      501
 93
      500
310
424CD108121A5919195B90640502408333333333333E3BF0000000000000FB01079024090700405020000000000001110200405405064090740C02480A0340
1001
ACAD
1000
AcDbSavedByObjectVersion
1070
     0
  0
ACAD_PROXY_OBJECT
  5
30
102
{ACAD_REACTORS
330
2A
102
}
330
2A
100
AcDbProxyObject
 90
      499
 91
      501
 93
      436
310
42CCD915DA5C99599C985B595059028333333333333E3BF0000000000000FB0107901411070040501600405405064090741402480A0340
1001
ACAD
1000
AcDbSavedByObjectVersion
1070
     0
  0
ACAD_PROXY_OBJECT
  5
32
102
{ACAD_REACTORS
330
2A
102
}
330
2A
100
AcDbProxyObject
 90
      499
 91
      501
 93
      388
310
4150985CDA58D07406404333333333333E3BF0000000000000FB0107A41107004050150841D405064090741402480A0350
1001
ACAD
1000
AcDbSavedByObjectVersion
1070
     0
  0
ACAD_PROXY_OBJECT
  5
36
102
{ACAD_REACTORS
330
2A
102
}
330
2A
100
AcDbProxyObject
 90
      499
 91
      501
 93
      428
310
42109C9A59DA1D195B90C409028333333333333E3BF0000000000000FB010790141107004050150841D405064090741402480A029950
1001
ACAD
1000
AcDbSavedByObjectVersion
1070
     0
  0
ACAD_PROXY_OBJECT
  5
3A
102
{ACAD_REACTORS
330
2A
102
}
330
2A
100
AcDbProxyObject
 90
      499
 91
      501
 93
      452
310
42D0DBDB1BDC90DA185B99D95104090240C333333333333E3BF0000000000000FB0108901411070040501508421405064090741402480A0350
1001
ACAD
1000
AcDbSavedByObjectVersion
1070
     0
  0
ACAD_PROXY_OBJECT
  5
34
102
{ACAD_REACTORS
330
2A
102
}
330
2A
100
AcDbProxyObject
 90
      499
 91
      501
 93
      500
310
4290DBDB98D95C1D1D585B10940D028333333333333E3BF0000000000000FB0107902409070040501000000000000111010841D405064090740C02480A0340
1001
ACAD
1000
AcDbSavedByObjectVersion
1070
     0
  0
ACAD_PROXY_OBJECT
  5
35
102
{ACAD_REACTORS
330
2A
102
}
330
2A
100
AcDbProxyObject
 90
      499
 91
      501
 93
      412
310
40D11A5B50B409028333333333333E3BF0000000000000FB010790141107004050150841D405064090741402480A02677FFFFFD0
1001
ACAD
1000
AcDbSavedByObjectVersion
1070
     0
  0
ACAD_PROXY_OBJECT
  5
39
102
{ACAD_REACTORS
330
2A
102
}
330
2A
100
AcDbProxyObject
 90
      499
 91
      501
 93
      444
310
42D19858D95C185D1D195C9B90F409028333333333333E3BF0000000000000FB010790141107004050150841D405064090741402480A0350
1001
ACAD
1000
AcDbSavedByObjectVersion
1070
     0
  0
ACAD_PROXY_OBJECT
  5
2B
102
{ACAD_REACTORS
330
2A
102
}
330
2A
100
AcDbProxyObject
 90
      499
 91
      501
 93
      388
310
41119B185D240901404333333333333E3BF0000000000000F9010740A41107004050150841D405064090741402480A1B50
1001
ACAD
1000
AcDbSavedByObjectVersion
1070
     0
  0
ACAD_PROXY_OBJECT
  5
2C
102
{ACAD_REACTORS
330
2A
102
}
330
2A
100
AcDbProxyObject
 90
      499
 91
      501
 93
      476
310
43519B185D15DA5D1A115919D95CD0140901404333333333333E3BF0000000000000F9010740901411070040501600405405064090741402480A1B50
1001
ACAD
1000
AcDbSavedByObjectVersion
1070
     0
  0
ACAD_PROXY_OBJECT
  5
2D
102
{ACAD_REACTORS
330
2A
102
}
330
2A
100
AcDbProxyObject
 90
      499
 91
      501
 93
      412
310
41D1DBDD5C985D5910240902404333333333333E3BF0000000000000F9010740A411070040501641D405064090741402480A1B50
1001
ACAD
1000
AcDbSavedByObjectVersion
1070
     0
  0
ACAD_PROXY_OBJECT
  5
2E
102
{ACAD_REACTORS
330
2A
102
}
330
2A
100
AcDbProxyObject
 90
      499
 91
      501
 93
      500
310
4411DBDD5C985D5915DA5D1A115919D95CD0340902404333333333333E3BF0000000000000F9010740901411070040501600405405064090741402480A1B50
1001
ACAD
1000
AcDbSavedByObjectVersion
1070
     0
  0
ACAD_PROXY_OBJECT
  5
38
102
{ACAD_REACTORS
330
2A
102
}
330
2A
100
AcDbProxyObject
 90
      499
 91
      501
 93
      444
310
42D31A5B995C185D1D195C9B90E409028333333333333E3BF0000000000000FB010790141107004050750841D405064090741402483A0350
1001
ACAD
1000
AcDbSavedByObjectVersion
1070
     0
  0
ACAD_PROXY_OBJECT
  5
33
102
{ACAD_REACTORS
330
2A
102
}
330
2A
100
AcDbProxyObject
 90
      499
 91
      501
 93
      420
310
425499585B1A5CDD1A58D08409028333333333333E3BF0000000000000FB01079019070040501508421405064090741402480A1B40
1001
ACAD
1000
AcDbSavedByObjectVersion
1070
     0
  0
ACAD_PROXY_OBJECT
  5
37
102
{ACAD_REACTORS
330
2A
102
}
330
2A
100
AcDbProxyObject
 90
      499
 91
      501
 93
      412
310
41D51A1A58DAD95B90D409028333333333333E3BF0000000000000FB010790141107004050150C41D405064090741402480A0350
1001
ACAD
1000
AcDbSavedByObjectVersion
1070
     0
  0
XRECORD
  5
272
102
{ACAD_REACTORS
330
269
102
}
330
269
100
AcDbXrecord
 90
        0
  0
XRECORD
  5
288
102
{ACAD_REACTORS
330
269
102
}
330
269
100
AcDbXrecord
1000
DSTYLE
1002
{
1070
   340
340
11
1002
}
  0
XRECORD
  5
273
102
{ACAD_REACTORS
330
269
102
}
330
269
100
AcDbXrecord
  1
{B2F31134-C10B-6B6C-04A3-E66C368AC295}
  0
XRECORD
  5
26C
102
{ACAD_REACTORS
330
269
102
}
330
269
100
AcDbXrecord
  1

  0
XRECORD
  5
271
102
{ACAD_REACTORS
330
269
102
}
330
269
100
AcDbXrecord
 90
        1
  0
XRECORD
  5
26E
102
{ACAD_REACTORS
330
269
102
}
330
269
100
AcDbXrecord
340
1A
  0
XRECORD
  5
270
102
{ACAD_REACTORS
330
269
102
}
330
269
100
AcDbXrecord
 90
    10269
  0
XRECORD
  5
26F
102
{ACAD_REACTORS
330
269
102
}
330
269
100
AcDbXrecord
340
19
  0
XRECORD
  5
275
102
{ACAD_REACTORS
330
269
102
}
330
269
100
AcDbXrecord
 40
0.0
  0
XRECORD
  5
278
102
{ACAD_REACTORS
330
269
102
}
330
269
100
AcDbXrecord
340
0
  0
XRECORD
  5
27E
102
{ACAD_REACTORS
330
269
102
}
330
269
100
AcDbXrecord
 10
0.0
 20
0.0
 30
0.0
  0
XRECORD
  5
27A
102
{ACAD_REACTORS
330
269
102
}
330
269
100
AcDbXrecord
 10
0.0
 20
0.0
 30
0.0
  0
XRECORD
  5
27D
102
{ACAD_REACTORS
330
269
102
}
330
269
100
AcDbXrecord
 10
0.0
 20
0.0
 30
0.0
  0
XRECORD
  5
27B
102
{ACAD_REACTORS
330
269
102
}
330
269
100
AcDbXrecord
 10
0.0
 20
0.0
 30
0.0
  0
XRECORD
  5
27C
102
{ACAD_REACTORS
330
269
102
}
330
269
100
AcDbXrecord
 10
0.0
 20
0.0
 30
0.0
  0
XRECORD
  5
279
102
{ACAD_REACTORS
330
269
102
}
330
269
100
AcDbXrecord
 10
0.0
 20
0.0
 30
0.0
  0
XRECORD
  5
276
102
{ACAD_REACTORS
330
269
102
}
330
269
100
AcDbXrecord
340
0
  0
XRECORD
  5
277
102
{ACAD_REACTORS
330
269
102
}
330
269
100
AcDbXrecord
 70
     0
  0
XRECORD
  5
26D
102
{ACAD_REACTORS
330
269
102
}
330
269
100
AcDbXrecord
  1

  0
XRECORD
  5
26A
102
{ACAD_REACTORS
330
269
102
}
330
269
100
AcDbXrecord
 90
        1
  0
XRECORD
  5
26B
102
{ACAD_REACTORS
330
269
102
}
330
269
100
AcDbXrecord
 90
       70
  0
XRECORD
  5
281
102
{ACAD_REACTORS
330
269
102
}
330
269
100
AcDbXrecord
340
0
  0
XRECORD
  5
287
102
{ACAD_REACTORS
330
269
102
}
330
269
100
AcDbXrecord
 10
0.0
 20
0.0
 30
0.0
  0
XRECORD
  5
283
102
{ACAD_REACTORS
330
269
102
}
330
269
100
AcDbXrecord
 10
0.0
 20
0.0
 30
0.0
  0
XRECORD
  5
286
102
{ACAD_REACTORS
330
269
102
}
330
269
100
AcDbXrecord
 10
0.0
 20
0.0
 30
0.0
  0
XRECORD
  5
284
102
{ACAD_REACTORS
330
269
102
}
330
269
100
AcDbXrecord
 10
0.0
 20
0.0
 30
0.0
  0
XRECORD
  5
285
102
{ACAD_REACTORS
330
269
102
}
330
269
100
AcDbXrecord
 10
0.0
 20
0.0
 30
0.0
  0
XRECORD
  5
282
102
{ACAD_REACTORS
330
269
102
}
330
269
100
AcDbXrecord
 10
0.0
 20
0.0
 30
0.0
  0
XRECORD
  5
27F
102
{ACAD_REACTORS
330
269
102
}
330
269
100
AcDbXrecord
340
0
  0
XRECORD
  5
280
102
{ACAD_REACTORS
330
269
102
}
330
269
100
AcDbXrecord
 70
     0
  0
XRECORD
  5
274
102
{ACAD_REACTORS
330
269
102
}
330
269
100
AcDbXrecord
  1
{FAEB1C32-E019-11D5-929B-00C0DF256EC4}
  0
DICTIONARYVAR
  5
28C
102
{ACAD_REACTORS
330
289
102
}
330
289
100
DictionaryVariables
280
     0
  1
1:1
  0
DICTIONARYVAR
  5
28D
102
{ACAD_REACTORS
330
289
102
}
330
289
100
DictionaryVariables
280
     0
  1
2
  0
DICTIONARYVAR
  5
28E
102
{ACAD_REACTORS
330
289
102
}
330
289
100
DictionaryVariables
280
     0
  1
1
  0
DICTIONARYVAR
  5
28B
102
{ACAD_REACTORS
330
289
102
}
330
289
100
DictionaryVariables
280
     0
  1
0
  0
DICTIONARY
  5
291
330
267
100
AcDbDictionary
280
     1
  3
ACAD_XREC_ROUNDTRIP
360
292
  0
DICTIONARY
  5
28F
330
266
100
AcDbDictionary
280
     1
  3
ACAD_XREC_ROUNDTRIP
360
290
  0
DICTIONARY
  5
293
330
268
100
AcDbDictionary
280
     1
  3
ACAD_XREC_ROUNDTRIP
360
294
  0
XRECORD
  5
292
102
{ACAD_REACTORS
330
291
102
}
330
291
100
AcDbXrecord
102
MATERIAL
148
0.0
149
0.0
149
0.0
 93
        0
 94
      127
282
     0
 72
     1
 77
     1
171
     1
175
     1
179
     1
273
     0
  0
XRECORD
  5
290
102
{ACAD_REACTORS
330
28F
102
}
330
28F
100
AcDbXrecord
102
MATERIAL
148
0.0
149
0.0
149
0.0
 93
        0
 94
      127
282
     0
 72
     1
 77
     1
171
     1
175
     1
179
     1
273
     0
  0
XRECORD
  5
294
102
{ACAD_REACTORS
330
293
102
}
330
293
100
AcDbXrecord
102
MATERIAL
148
0.0
149
0.0
149
0.0
 93
        0
 94
      127
282
     0
 72
     1
 77
     1
171
     1
175
     1
179
     1
273
     0
  0
ENDSEC
  0
EOF
